  0
SECTION
  2
HEADER
  9
$ACADVER
  1
AC1009
  9
$INSBASE
 10
0.0
 20
0.0
 30
0.0
  9
$EXTMIN
 10
-17.713
 20
-21.493
 30
-0.014
  9
$EXTMAX
 10
38.781
 20
24.278
 30
459.813
  9
$LIMMIN
 10
-11.113
 20
-21.428
  9
$LIMMAX
 10
38.754
 20
24.272
  9
$ORTHOMODE
 70
     1
  9
$REGENMODE
 70
     1
  9
$FILLMODE
 70
     1
  9
$QTEXTMODE
 70
     0
  9
$MIRRTEXT
 70
     1
  9
$DRAGMODE
 70
     2
  9
$LTSCALE
 40
1.0
  9
$OSMODE
 70
     9
  9
$ATTMODE
 70
     1
  9
$TEXTSIZE
 40
0.2
  9
$TRACEWID
 40
0.05
  9
$TEXTSTYLE
  7
STANDARD
  9
$CLAYER
  8
HAUS_FLAECHE
  9
$CELTYPE
  6
CONTINUOUS
  9
$CECOLOR
 62
   256
  9
$DIMSCALE
 40
1.0
  9
$DIMASZ
 40
0.18
  9
$DIMEXO
 40
0.063
  9
$DIMDLI
 40
0.38
  9
$DIMRND
 40
0.0
  9
$DIMDLE
 40
0.0
  9
$DIMEXE
 40
0.18
  9
$DIMTP
 40
0.0
  9
$DIMTM
 40
0.0
  9
$DIMTXT
 40
0.18
  9
$DIMCEN
 40
0.09
  9
$DIMTSZ
 40
0.0
  9
$DIMTOL
 70
     0
  9
$DIMLIM
 70
     0
  9
$DIMTIH
 70
     1
  9
$DIMTOH
 70
     1
  9
$DIMSE1
 70
     0
  9
$DIMSE2
 70
     0
  9
$DIMTAD
 70
     0
  9
$DIMZIN
 70
     0
  9
$DIMBLK
  1

  9
$DIMASO
 70
     1
  9
$DIMSHO
 70
     1
  9
$DIMPOST
  1

  9
$DIMAPOST
  1

  9
$DIMALT
 70
     0
  9
$DIMALTD
 70
     2
  9
$DIMALTF
 40
25.4
  9
$DIMLFAC
 40
1.0
  9
$DIMTOFL
 70
     0
  9
$DIMTVP
 40
0.0
  9
$DIMTIX
 70
     0
  9
$DIMSOXD
 70
     0
  9
$DIMSAH
 70
     0
  9
$DIMBLK1
  1

  9
$DIMBLK2
  1

  9
$DIMSTYLE
  2
STANDARD
  9
$DIMCLRD
 70
     0
  9
$DIMCLRE
 70
     0
  9
$DIMCLRT
 70
     0
  9
$DIMTFAC
 40
1.0
  9
$DIMGAP
 40
0.09
  9
$LUNITS
 70
     2
  9
$LUPREC
 70
     3
  9
$SKETCHINC
 40
0.1
  9
$FILLETRAD
 40
0.0
  9
$AUNITS
 70
     0
  9
$AUPREC
 70
     0
  9
$MENU
  1
acad
  9
$ELEVATION
 40
0.0
  9
$PELEVATION
 40
0.0
  9
$THICKNESS
 40
0.0
  9
$LIMCHECK
 70
     0
  9
$BLIPMODE
 70
     1
  9
$CHAMFERA
 40
0.0
  9
$CHAMFERB
 40
0.0
  9
$SKPOLY
 70
     0
  9
$TDCREATE
 40
2452863.656085
  9
$TDUPDATE
 40
2453460.354517
  9
$TDINDWG
 40
0.10039
  9
$TDUSRTIMER
 40
0.10039
  9
$USRTIMER
 70
     1
  9
$ANGBASE
 50
0.0
  9
$ANGDIR
 70
     0
  9
$PDMODE
 70
    33
  9
$PDSIZE
 40
0.2
  9
$PLINEWID
 40
0.0
  9
$COORDS
 70
     0
  9
$SPLFRAME
 70
     0
  9
$SPLINETYPE
 70
     6
  9
$SPLINESEGS
 70
     8
  9
$ATTDIA
 70
     0
  9
$ATTREQ
 70
     1
  9
$HANDLING
 70
     1
  9
$HANDSEED
  5
10241C
  9
$SURFTAB1
 70
     6
  9
$SURFTAB2
 70
     6
  9
$SURFTYPE
 70
     6
  9
$SURFU
 70
     6
  9
$SURFV
 70
     6
  9
$UCSNAME
  2

  9
$UCSORG
 10
0.0
 20
0.0
 30
0.0
  9
$UCSXDIR
 10
1.0
 20
0.0
 30
0.0
  9
$UCSYDIR
 10
0.0
 20
1.0
 30
0.0
  9
$PUCSNAME
  2

  9
$PUCSORG
 10
0.0
 20
0.0
 30
0.0
  9
$PUCSXDIR
 10
1.0
 20
0.0
 30
0.0
  9
$PUCSYDIR
 10
0.0
 20
1.0
 30
0.0
  9
$USERI1
 70
     0
  9
$USERI2
 70
     0
  9
$USERI3
 70
     0
  9
$USERI4
 70
     0
  9
$USERI5
 70
     0
  9
$USERR1
 40
0.0
  9
$USERR2
 40
0.0
  9
$USERR3
 40
0.0
  9
$USERR4
 40
0.0
  9
$USERR5
 40
0.0
  9
$WORLDVIEW
 70
     1
  9
$SHADEDGE
 70
     3
  9
$SHADEDIF
 70
    70
  9
$TILEMODE
 70
     1
  9
$MAXACTVP
 70
    16
  9
$PLIMCHECK
 70
     0
  9
$PEXTMIN
 10
1.000000E+020
 20
1.000000E+020
 30
1.000000E+020
  9
$PEXTMAX
 10
-1.000000E+020
 20
-1.000000E+020
 30
-1.000000E+020
  9
$PLIMMIN
 10
0.0
 20
0.0
  9
$PLIMMAX
 10
12.0
 20
9.0
  9
$UNITMODE
 70
     0
  9
$VISRETAIN
 70
     0
  9
$PLINEGEN
 70
     1
  9
$PSLTSCALE
 70
     0
  0
ENDSEC
  0
SECTION
  2
TABLES
  0
TABLE
  2
VPORT
 70
     2
  0
VPORT
  2
*ACTIVE
 70
     0
 10
0.0
 20
0.0
 11
1.0
 21
1.0
 12
10.534
 22
1.393
 13
0.0
 23
0.0
 14
1.0
 24
1.0
 15
0.0
 25
0.0
 16
0.0
 26
0.0
 36
1.0
 17
0.0
 27
0.0
 37
0.0
 40
46.222
 41
1.86
 42
50.0
 43
0.0
 44
0.0
 50
0.0
 51
0.0
 71
     0
 72
   100
 73
     1
 74
     1
 75
     0
 76
     0
 77
     0
 78
     0
  0
ENDTAB
  0
TABLE
  2
LTYPE
 70
     2
  0
LTYPE
  2
CONTINUOUS
 70
     0
  3
Solid line
 72
    65
 73
     0
 40
0.0
  0
LTYPE
  2
AUSGEZOGEN
 70
     0
  3
durchgezogene Linie
 72
    65
 73
     0
 40
0.0
  0
ENDTAB
  0
TABLE
  2
LAYER
 70
    16
  0
LAYER
  2
0
 70
     4
 62
     7
  6
CONTINUOUS
  0
LAYER
  2
PUNKTE_LI
 70
     4
 62
     7
  6
CONTINUOUS
  0
LAYER
  2
STANDARD
 70
     4
 62
     7
  6
AUSGEZOGEN
  0
LAYER
  2
DEFPOINTS
 70
     4
 62
     7
  6
CONTINUOUS
  0
LAYER
  2
PUNKTE
 70
     4
 62
     7
  6
CONTINUOUS
  0
LAYER
  2
GEBAEUDE
 70
     4
 62
     5
  6
CONTINUOUS
  0
LAYER
  2
EINBAUTEN
 70
     4
 62
     6
  6
CONTINUOUS
  0
LAYER
  2
ZAUN
 70
     4
 62
     1
  6
CONTINUOUS
  0
LAYER
  2
SYMBOLE
 70
     4
 62
     1
  6
CONTINUOUS
  0
LAYER
  2
RAHMEN
 70
     0
 62
     7
  6
CONTINUOUS
  0
LAYER
  2
PUNKTE_H
 70
     4
 62
     7
  6
CONTINUOUS
  0
LAYER
  2
GEBAEUDE_H
 70
     4
 62
     5
  6
CONTINUOUS
  0
LAYER
  2
EINBAUTEN_H
 70
     4
 62
     6
  6
CONTINUOUS
  0
LAYER
  2
HOEHENLINIEN
 70
     4
 62
     4
  6
CONTINUOUS
  0
LAYER
  2
HAUS
 70
     4
 62
     7
  6
CONTINUOUS
  0
LAYER
  2
HAUS_FLAECHE
 70
     0
 62
     8
  6
CONTINUOUS
  0
ENDTAB
  0
TABLE
  2
STYLE
 70
     2
  0
STYLE
  2
STANDARD
 70
     0
 40
0.0
 41
1.0
 50
0.0
 71
     0
 42
0.2
  3
txt
  4

  0
STYLE
  2
ROMANS
 70
     0
 40
0.0
 41
1.0
 50
0.0
 71
     0
 42
0.3
  3
romans
  4

  0
ENDTAB
  0
TABLE
  2
VIEW
 70
     0
  0
ENDTAB
  0
TABLE
  2
UCS
 70
     0
  0
ENDTAB
  0
TABLE
  2
APPID
 70
     2
  0
APPID
  2
ACAD
 70
     0
  0
APPID
  2
CONTENTBLOCKICON
 70
     0
  0
ENDTAB
  0
TABLE
  2
DIMSTYLE
 70
     1
  0
DIMSTYLE
  2
STANDARD
 70
     0
  3

  4

  5
100001
  6

  7

 40
1.0
 41
0.18
 42
0.063
 43
0.38
 44
0.18
 45
0.0
 46
0.0
 47
0.0
 48
0.0
140
0.18
141
0.09
142
0.0
143
25.4
144
1.0
145
0.0
146
1.0
147
0.09
 71
     0
 72
     0
 73
     1
 74
     1
 75
     0
 76
     0
 77
     0
 78
     0
170
     0
171
     2
172
     0
173
     0
174
     0
175
     0
176
     0
177
     0
178
     0
  0
ENDTAB
  0
ENDSEC
  0
SECTION
  2
BLOCKS
  0
BLOCK
  8
0
  2
$MODEL_SPACE
 70
     0
 10
0.0
 20
0.0
 30
0.0
  3
$MODEL_SPACE
  1

  0
ENDBLK
  5
101D58
  8
0
  0
BLOCK
 67
     1
  8
0
  2
$PAPER_SPACE
 70
     0
 10
0.0
 20
0.0
 30
0.0
  3
$PAPER_SPACE
  1

  0
ENDBLK
  5
101D55
 67
     1
  8
0
  0
BLOCK
  8
0
  2
*X0
 70
     1
 10
0.0
 20
0.0
 30
0.0
  3
*X0
  1

  0
ENDBLK
  5
1005EB
  8
0
  0
BLOCK
  8
0
  2
ABLAUF
 70
     0
 10
0.0
 20
0.0
 30
0.0
  3
ABLAUF
  1
ABLAUF
  0
LINE
  5
101236
  8
SYMBOLE
 10
-0.167
 20
0.5
 30
0.0
 11
-0.167
 21
-0.5
 31
0.0
  0
LINE
  5
101237
  8
SYMBOLE
 10
0.167
 20
0.5
 30
0.0
 11
0.167
 21
-0.5
 31
0.0
  0
POLYLINE
  5
101238
  8
SYMBOLE
 66
     1
 10
0.0
 20
0.0
 30
0.0
 70
     1
  0
VERTEX
  5
101239
  8
SYMBOLE
 10
-0.5
 20
-0.5
 30
0.0
  0
VERTEX
  5
10123A
  8
SYMBOLE
 10
-0.5
 20
0.5
 30
0.0
  0
VERTEX
  5
10123B
  8
SYMBOLE
 10
0.5
 20
0.5
 30
0.0
  0
VERTEX
  5
10123C
  8
SYMBOLE
 10
0.5
 20
-0.5
 30
0.0
  0
SEQEND
  5
10123D
  8
SYMBOLE
  0
ENDBLK
  5
10123F
  8
0
  0
BLOCK
  8
0
  2
KANALSCHACHT
 70
     0
 10
0.0
 20
0.0
 30
0.0
  3
KANALSCHACHT
  1

  0
LINE
  5
101241
  8
SYMBOLE
 10
0.0
 20
-0.35
 30
0.0
 11
0.0
 21
0.35
 31
0.0
  0
CIRCLE
  5
101242
  8
SYMBOLE
 10
0.0
 20
0.0
 30
0.0
 40
0.5
  0
CIRCLE
  5
101243
  8
SYMBOLE
 10
0.0
 20
0.0
 30
0.0
 40
0.35
  0
LINE
  5
101244
  8
SYMBOLE
 10
-0.35
 20
0.0
 30
0.0
 11
0.35
 21
0.0
 31
0.0
  0
ENDBLK
  5
101246
  8
0
  0
BLOCK
  8
0
  2
NORDEN
 70
     0
 10
0.0
 20
0.0
 30
0.0
  3
NORDEN
  1

  0
TEXT
  5
1023DA
  8
RAHMEN
 62
     1
 10
-5.1
 20
-0.9
 30
0.0
 40
1.8
  1
Norden
 72
     4
 11
0.0
 21
0.0
 31
0.0
  0
LINE
  5
1023DB
  8
RAHMEN
 62
     8
 10
0.0
 20
33.0
 30
0.0
 11
6.0
 21
0.0
 31
0.0
  0
LINE
  5
1023DC
  8
RAHMEN
 62
     8
 10
-6.0
 20
0.0
 30
0.0
 11
0.0
 21
33.0
 31
0.0
  0
ENDBLK
  5
1023DE
  8
0
  0
BLOCK
  8
0
  2
*U5
 70
     1
 10
0.0
 20
0.0
 30
0.0
  3
*U5
  1

  0
SOLID
  5
102401
  8
HAUS_FLAECHE
  6
CONTINUOUS
 10
-5.61
 20
0.0
 30
0.0
 11
-10.13
 21
-2.025
 31
0.0
 12
-5.61
 22
-2.025
 32
0.0
 13
-5.61
 23
-2.025
 33
0.0
210
0.0
220
0.0
230
-1.0
  0
SOLID
  5
102402
  8
HAUS_FLAECHE
  6
CONTINUOUS
 10
10.13
 20
0.0
 30
0.0
 11
5.61
 21
0.0
 31
0.0
 12
0.25
 22
0.0
 32
0.0
 13
0.25
 23
0.0
 33
0.0
  0
SOLID
  5
102403
  8
HAUS_FLAECHE
  6
CONTINUOUS
 10
-10.13
 20
0.0
 30
0.0
 11
-10.13
 21
-2.025
 31
0.0
 12
-5.61
 22
0.0
 32
0.0
 13
-5.61
 23
0.0
 33
0.0
210
0.0
220
0.0
230
-1.0
  0
SOLID
  5
102404
  8
HAUS_FLAECHE
  6
CONTINUOUS
 10
5.995
 20
1.875
 30
0.0
 11
5.995
 21
-1.125
 31
0.0
 12
6.145
 22
-1.125
 32
0.0
 13
6.145
 23
-1.125
 33
0.0
210
0.0
220
0.0
230
-1.0
  0
SOLID
  5
102405
  8
HAUS_FLAECHE
  6
CONTINUOUS
 10
-0.25
 20
1.875
 30
0.0
 11
-15.49
 21
0.0
 31
0.0
 12
-10.13
 22
0.0
 32
0.0
 13
-10.13
 23
0.0
 33
0.0
210
0.0
220
0.0
230
-1.0
  0
SOLID
  5
102406
  8
HAUS_FLAECHE
  6
CONTINUOUS
 10
-0.25
 20
1.875
 30
0.0
 11
-10.13
 21
0.0
 31
0.0
 12
-0.25
 22
0.0
 32
0.0
 13
-0.25
 23
0.0
 33
0.0
210
0.0
220
0.0
230
-1.0
  0
SOLID
  5
102407
  8
HAUS_FLAECHE
  6
CONTINUOUS
 10
-15.49
 20
8.34
 30
0.0
 11
-0.25
 21
1.875
 31
0.0
 12
5.995
 22
1.875
 32
0.0
 13
5.995
 23
1.875
 33
0.0
210
0.0
220
0.0
230
-1.0
  0
SOLID
  5
102408
  8
HAUS_FLAECHE
  6
CONTINUOUS
 10
-15.49
 20
8.34
 30
0.0
 11
-15.49
 21
0.0
 31
0.0
 12
-0.25
 22
1.875
 32
0.0
 13
-0.25
 23
1.875
 33
0.0
210
0.0
220
0.0
230
-1.0
  0
SOLID
  5
102409
  8
HAUS_FLAECHE
  6
CONTINUOUS
 10
-0.25
 20
8.865
 30
0.0
 11
-16.69
 21
8.34
 31
0.0
 12
-15.49
 22
8.34
 32
0.0
 13
-15.49
 23
8.34
 33
0.0
210
0.0
220
0.0
230
-1.0
  0
SOLID
  5
10240A
  8
HAUS_FLAECHE
  6
CONTINUOUS
 10
-0.25
 20
8.865
 30
0.0
 11
-15.49
 21
8.34
 31
0.0
 12
5.995
 22
1.875
 32
0.0
 13
5.995
 23
1.875
 33
0.0
210
0.0
220
0.0
230
-1.0
  0
SOLID
  5
10240B
  8
HAUS_FLAECHE
  6
CONTINUOUS
 10
5.995
 20
1.875
 30
0.0
 11
5.945
 21
8.865
 31
0.0
 12
-0.25
 22
8.865
 32
0.0
 13
-0.25
 23
8.865
 33
0.0
210
0.0
220
0.0
230
-1.0
  0
SOLID
  5
10240C
  8
HAUS_FLAECHE
  6
CONTINUOUS
 10
5.945
 20
8.865
 30
0.0
 11
5.995
 21
1.875
 31
0.0
 12
6.145
 22
-1.125
 32
0.0
 13
6.145
 23
-1.125
 33
0.0
210
0.0
220
0.0
230
-1.0
  0
SOLID
  5
10240D
  8
HAUS_FLAECHE
  6
CONTINUOUS
 10
-0.25
 20
10.74
 30
0.0
 11
-16.69
 21
8.34
 31
0.0
 12
-0.25
 22
8.865
 32
0.0
 13
-0.25
 23
8.865
 33
0.0
210
0.0
220
0.0
230
-1.0
  0
SOLID
  5
10240E
  8
HAUS_FLAECHE
  6
CONTINUOUS
 10
-16.69
 20
8.34
 30
0.0
 11
-8.71
 21
10.74
 31
0.0
 12
-12.79
 22
10.74
 32
0.0
 13
-12.79
 23
10.74
 33
0.0
210
0.0
220
0.0
230
-1.0
  0
SOLID
  5
10240F
  8
HAUS_FLAECHE
  6
CONTINUOUS
 10
-16.69
 20
8.34
 30
0.0
 11
-8.02
 21
10.74
 31
0.0
 12
-8.71
 22
10.74
 32
0.0
 13
-8.71
 23
10.74
 33
0.0
210
0.0
220
0.0
230
-1.0
  0
SOLID
  5
102410
  8
HAUS_FLAECHE
  6
CONTINUOUS
 10
-16.69
 20
8.34
 30
0.0
 11
-7.72
 21
10.74
 31
0.0
 12
-8.02
 22
10.74
 32
0.0
 13
-8.02
 23
10.74
 33
0.0
210
0.0
220
0.0
230
-1.0
  0
SOLID
  5
102411
  8
HAUS_FLAECHE
  6
CONTINUOUS
 10
-16.69
 20
8.34
 30
0.0
 11
-7.03
 21
10.74
 31
0.0
 12
-7.72
 22
10.74
 32
0.0
 13
-7.72
 23
10.74
 33
0.0
210
0.0
220
0.0
230
-1.0
  0
SOLID
  5
102412
  8
HAUS_FLAECHE
  6
CONTINUOUS
 10
-16.69
 20
8.34
 30
0.0
 11
-2.745
 21
10.74
 31
0.0
 12
-7.03
 22
10.74
 32
0.0
 13
-7.03
 23
10.74
 33
0.0
210
0.0
220
0.0
230
-1.0
  0
SOLID
  5
102413
  8
HAUS_FLAECHE
  6
CONTINUOUS
 10
-16.69
 20
8.34
 30
0.0
 11
-1.62
 21
10.74
 31
0.0
 12
-2.745
 22
10.74
 32
0.0
 13
-2.745
 23
10.74
 33
0.0
210
0.0
220
0.0
230
-1.0
  0
SOLID
  5
102414
  8
HAUS_FLAECHE
  6
CONTINUOUS
 10
-16.69
 20
8.34
 30
0.0
 11
-0.25
 21
10.74
 31
0.0
 12
-1.62
 22
10.74
 32
0.0
 13
-1.62
 23
10.74
 33
0.0
210
0.0
220
0.0
230
-1.0
  0
SOLID
  5
102415
  8
HAUS_FLAECHE
  6
CONTINUOUS
 10
-12.79
 20
10.74
 30
0.0
 11
-12.79
 21
11.94
 31
0.0
 12
-16.69
 22
11.94
 32
0.0
 13
-16.69
 23
11.94
 33
0.0
210
0.0
220
0.0
230
-1.0
  0
SOLID
  5
102416
  8
HAUS_FLAECHE
  6
CONTINUOUS
 10
-16.69
 20
11.94
 30
0.0
 11
-16.69
 21
8.34
 31
0.0
 12
-12.79
 22
10.74
 32
0.0
 13
-12.79
 23
10.74
 33
0.0
210
0.0
220
0.0
230
-1.0
  0
SOLID
  5
102417
  8
HAUS_FLAECHE
  6
CONTINUOUS
 10
5.945
 20
8.865
 30
0.0
 11
6.145
 21
13.665
 31
0.0
 12
5.945
 22
13.665
 32
0.0
 13
5.945
 23
13.665
 33
0.0
210
0.0
220
0.0
230
-1.0
  0
SOLID
  5
102418
  8
HAUS_FLAECHE
  6
CONTINUOUS
 10
6.145
 20
13.665
 30
0.0
 11
5.945
 21
8.865
 31
0.0
 12
6.145
 22
-1.125
 32
0.0
 13
6.145
 23
-1.125
 33
0.0
210
0.0
220
0.0
230
-1.0
  0
ENDBLK
  5
10241A
  8
0
  0
ENDSEC
  0
SECTION
  2
ENTITIES
  0
INSERT
  5
100E85
  8
STANDARD
  6
CONTINUOUS
 62
     7
  2
*X0
 10
0.0
 20
0.0
 30
0.0
1001
ACAD
1000
HATCH
1002
{
1070
    19
1000
SCHRAFFUR_3
1040
1.0
1040
0.785
1000
R14_HATCH_DATA
1000
50B
1011
1.0
1021
0.0
1031
0.0
1021
0.0
1031
0.0
1011
0.0
1021
0.0
1031
0.0
1021
1.0
1031
0.0
1011
0.0
1021
0.0
1031
0.0
1021
0.0
1031
1.0
1040
0.0
1010
0.0
1020
0.0
1030
1.0
1000
SCHRAFFUR_3
1070
     0
1070
     0
1071
        1
1071
        0
1071
        2
1070
     1
1040
0.365
1040
5.49
1040
0.615
1040
5.49
1070
     1
1040
0.615
1040
5.49
1040
0.365
1040
5.49
1071
        0
1070
     0
1070
     2
1040
0.785
1040
1.0
1070
     0
1070
     2
1040
2.356
1040
0.0
1040
0.0
1040
-0.106
1040
-0.106
1070
     0
1040
2.356
1040
-0.053
1040
-0.053
1040
-0.106
1040
-0.106
1070
     2
1040
0.1
1040
-0.05
1071
        0
1002
}
  0
LINE
  5
100F53
  8
PUNKTE_LI
 10
15.564
 20
5.482
 30
455.558
 11
15.571
 21
-0.057
 31
455.586
  0
LINE
  5
100F54
  8
PUNKTE_LI
 10
15.609
 20
7.911
 30
455.558
 11
15.564
 21
5.482
 31
455.558
  0
LINE
  5
100F55
  8
PUNKTE_LI
 10
15.625
 20
8.215
 30
455.733
 11
15.609
 21
7.911
 31
455.558
  0
LINE
  5
100F56
  8
PUNKTE_LI
 10
16.69
 20
8.32
 30
455.715
 11
15.625
 21
8.215
 31
455.733
  0
LINE
  5
100F57
  8
PUNKTE_LI
 10
16.716
 20
10.782
 30
457.251
 11
16.69
 21
8.32
 31
455.715
  0
LINE
  5
100F58
  8
PUNKTE_LI
 10
18.437
 20
10.603
 30
457.251
 11
16.716
 21
10.782
 31
457.251
  0
LINE
  5
100F59
  8
PUNKTE_LI
 10
18.591
 20
6.652
 30
456.788
 11
18.437
 21
10.603
 31
457.251
  0
LINE
  5
100F5A
  8
PUNKTE_LI
 10
19.499
 20
2.665
 30
456.447
 11
18.591
 21
6.652
 31
456.788
  0
LINE
  5
100F5B
  8
PUNKTE_LI
 10
19.429
 20
1.059
 30
456.128
 11
19.499
 21
2.665
 31
456.447
  0
LINE
  5
100F5C
  8
PUNKTE_LI
 10
19.203
 20
-0.606
 30
455.583
 11
19.429
 21
1.059
 31
456.128
  0
LINE
  5
100F5D
  8
PUNKTE_LI
 10
18.623
 20
3.138
 30
455.596
 11
19.203
 21
-0.606
 31
455.583
  0
LINE
  5
100F5E
  8
PUNKTE_LI
 10
17.72
 20
6.689
 30
455.609
 11
18.623
 21
3.138
 31
455.596
  0
LINE
  5
100F5F
  8
PUNKTE_LI
 10
17.579
 20
7.714
 30
455.657
 11
17.72
 21
6.689
 31
455.609
  0
LINE
  5
100F61
  8
PUNKTE_LI
 10
14.101
 20
11.878
 30
457.672
 11
16.686
 21
11.866
 31
457.46
  0
LINE
  5
100F62
  8
PUNKTE_LI
 10
12.802
 20
11.825
 30
458.124
 11
14.101
 21
11.878
 31
457.672
  0
LINE
  5
100F70
  8
PUNKTE_LI
 10
22.052
 20
14.004
 30
457.756
 11
22.37
 21
11.742
 31
457.488
  0
LINE
  5
100F71
  8
PUNKTE_LI
 10
19.84
 20
15.05
 30
457.836
 11
22.052
 21
14.004
 31
457.756
  0
LINE
  5
100F72
  8
PUNKTE_LI
 10
16.132
 20
14.473
 30
457.664
 11
19.84
 21
15.05
 31
457.836
  0
LINE
  5
100F73
  8
PUNKTE_LI
 10
13.959
 20
14.419
 30
457.744
 11
16.132
 21
14.473
 31
457.664
  0
LINE
  5
100F74
  8
PUNKTE_LI
 10
12.032
 20
14.519
 30
458.337
 11
13.959
 21
14.419
 31
457.744
  0
LINE
  5
100F75
  8
PUNKTE_LI
 10
12.266
 20
12.056
 30
458.279
 11
12.032
 21
14.519
 31
458.337
  0
LINE
  5
100F76
  8
PUNKTE_LI
 10
12.765
 20
10.77
 30
458.254
 11
12.266
 21
12.056
 31
458.279
  0
LINE
  5
100F77
  8
PUNKTE_LI
 10
9.009
 20
10.773
 30
458.228
 11
12.765
 21
10.77
 31
458.254
  0
LINE
  5
100F78
  8
PUNKTE_LI
 10
6.889
 20
11.409
 30
458.36
 11
9.011
 21
11.428
 31
458.339
  0
LINE
  5
100F79
  8
PUNKTE_LI
 10
6.871
 20
10.787
 30
458.332
 11
6.889
 21
11.409
 31
458.36
  0
LINE
  5
100F7A
  8
PUNKTE_LI
 10
0.25
 20
10.74
 30
458.128
 11
6.871
 21
10.787
 31
458.332
  0
LINE
  5
100F7C
  8
PUNKTE_LI
 10
-5.997
 20
8.905
 30
458.076
 11
-4.095
 21
8.918
 31
458.139
  0
LINE
  5
100F7F
  8
PUNKTE_LI
 10
-5.943
 20
12.092
 30
457.712
 11
-5.945
 21
10.552
 31
457.889
  0
LINE
  5
100F80
  8
PUNKTE_LI
 10
-1.713
 20
11.842
 30
457.854
 11
-5.943
 21
12.092
 31
457.712
  0
LINE
  5
100F81
  8
PUNKTE_LI
 10
-1.472
 20
10.597
 30
457.935
 11
-1.713
 21
11.842
 31
457.854
  0
LINE
  5
100F82
  8
PUNKTE_LI
 10
-0.583
 20
13.694
 30
458.114
 11
-0.684
 21
12.542
 31
458.015
  0
LINE
  5
100F83
  8
PUNKTE_LI
 10
5.185
 20
12.55
 30
458.247
 11
-0.583
 21
13.694
 31
458.114
  0
LINE
  5
100F84
  8
PUNKTE_LI
 10
5.919
 20
14.313
 30
458.23
 11
5.185
 21
12.55
 31
458.247
  0
LINE
  5
100F85
  8
PUNKTE_LI
 10
8.953
 20
14.517
 30
458.289
 11
5.919
 21
14.313
 31
458.23
  0
LINE
  5
100F87
  8
PUNKTE_LI
 10
10.616
 20
15.677
 30
458.911
 11
8.214
 21
15.138
 31
458.714
  0
LINE
  5
100F88
  8
PUNKTE_LI
 10
13.394
 20
16.558
 30
458.935
 11
10.616
 21
15.677
 31
458.911
  0
LINE
  5
100F89
  8
PUNKTE_LI
 10
17.315
 20
17.519
 30
459.177
 11
13.394
 21
16.558
 31
458.935
  0
LINE
  5
100F8A
  8
PUNKTE_LI
 10
21.931
 20
18.259
 30
459.378
 11
17.315
 21
17.519
 31
459.177
  0
LINE
  5
100F8E
  8
PUNKTE_LI
 10
26.964
 20
21.768
 30
459.73
 11
27.871
 21
21.842
 31
459.704
  0
LINE
  5
100F90
  8
PUNKTE_LI
 10
26.385
 20
21.854
 30
459.687
 11
26.929
 21
21.936
 31
459.692
  0
LINE
  5
100F94
  8
PUNKTE_LI
 10
24.655
 20
21.158
 30
459.791
 11
25.498
 21
21.463
 31
459.799
  0
LINE
  5
100F96
  8
PUNKTE_LI
 10
23.786
 20
20.851
 30
459.657
 11
24.612
 21
21.266
 31
459.685
  0
LINE
  5
100F98
  8
PUNKTE_LI
 10
22.264
 20
19.809
 30
459.697
 11
23.85
 21
20.72
 31
459.765
  0
LINE
  5
100F9C
  8
PUNKTE_LI
 10
19.617
 20
18.689
 30
459.443
 11
20.501
 21
19.037
 31
459.488
  0
LINE
  5
100F9E
  8
PUNKTE_LI
 10
18.751
 20
18.309
 30
459.498
 11
19.682
 21
18.574
 31
459.552
  0
LINE
  5
100FA0
  8
PUNKTE_LI
 10
16.898
 20
17.976
 30
459.287
 11
18.744
 21
18.42
 31
459.374
  0
LINE
  5
100FA2
  8
PUNKTE_LI
 10
15.051
 20
17.401
 30
459.294
 11
16.937
 21
17.833
 31
459.402
  0
LINE
  5
100FA4
  8
PUNKTE_LI
 10
13.139
 20
17.178
 30
459.071
 11
15.009
 21
17.539
 31
459.177
  0
LINE
  5
100FA6
  8
PUNKTE_LI
 10
11.319
 20
16.636
 30
459.086
 11
13.196
 21
17.046
 31
459.19
  0
LINE
  5
100FA8
  8
PUNKTE_LI
 10
8.473
 20
16.13
 30
458.921
 11
10.245
 21
16.468
 31
459.023
  0
LINE
  5
100FAA
  8
PUNKTE_LI
 10
6.069
 20
15.826
 30
458.652
 11
8.448
 21
16.251
 31
458.793
  0
LINE
  5
100FAC
  8
PUNKTE_LI
 10
5.111
 20
15.553
 30
458.616
 11
6.101
 21
15.691
 31
458.771
  0
LINE
  5
100FAE
  8
PUNKTE_LI
 10
3.1
 20
15.349
 30
458.48
 11
5.071
 21
15.663
 31
458.582
  0
LINE
  5
100FB0
  8
PUNKTE_LI
 10
1.084
 20
14.916
 30
458.404
 11
3.115
 21
15.217
 31
458.524
  0
LINE
  5
100FB2
  8
PUNKTE_LI
 10
-0.92
 20
14.741
 30
458.276
 11
1.088
 21
15.018
 31
458.378
  0
LINE
  5
100FB4
  8
PUNKTE_LI
 10
-2.899
 20
14.301
 30
458.195
 11
-0.918
 21
14.62
 31
458.303
  0
LINE
  5
100FB6
  8
PUNKTE_LI
 10
-5.975
 20
14.102
 30
458.026
 11
-2.939
 21
14.427
 31
458.163
  0
LINE
  5
100FB9
  8
PUNKTE_LI
 10
-12.463
 20
13.618
 30
457.727
 11
-7.973
 21
13.937
 31
457.923
  0
LINE
  5
100FBB
  8
PUNKTE_LI
 10
-16.77
 20
14.57
 30
457.709
 11
-15.093
 21
13.34
 31
457.649
  0
LINE
  5
100FC0
  8
PUNKTE_LI
 10
18.143
 20
23.229
 30
459.633
 11
12.198
 21
21.847
 31
459.254
  0
LINE
  5
100FC4
  8
PUNKTE_LI
 10
10.23
 20
-0.121
 30
455.462
 11
13.368
 21
-0.054
 31
455.531
  0
LINE
  5
100FC5
  8
PUNKTE_LI
 10
7.848
 20
-2.128
 30
455.433
 11
10.21
 21
-2.113
 31
455.422
  0
LINE
  5
100FC7
  8
PUNKTE_LI
 10
5.752
 20
-0.126
 30
455.52
 11
5.489
 21
-0.655
 31
455.52
  0
LINE
  5
100FC8
  8
PUNKTE_LI
 10
0.269
 20
-0.116
 30
455.378
 11
3.236
 21
-0.113
 31
455.479
  0
LINE
  5
100FCC
  8
PUNKTE_LI
 10
-2.051
 20
-0.209
 30
455.401
 11
-5.924
 21
0.674
 31
455.552
  0
LINE
  5
100FCD
  8
PUNKTE_LI
 10
-1.088
 20
-2.652
 30
455.155
 11
-2.051
 21
-0.209
 31
455.401
  0
LINE
  5
100FCE
  8
PUNKTE_LI
 10
4.942
 20
-3.715
 30
455.456
 11
1.774
 21
-2.648
 31
455.456
  0
LINE
  5
100FCF
  8
PUNKTE_LI
 10
10.65
 20
-3.897
 30
455.412
 11
4.942
 21
-3.715
 31
455.456
  0
LINE
  5
100FD0
  8
PUNKTE_LI
 10
12.714
 20
-2.273
 30
455.417
 11
10.65
 21
-3.897
 31
455.412
  0
LINE
  5
100FD1
  8
PUNKTE_LI
 10
16.651
 20
-1.994
 30
455.449
 11
12.714
 21
-2.273
 31
455.417
  0
LINE
  5
100FD9
  8
PUNKTE_LI
 10
18.718
 20
-9.371
 30
455.345
 11
22.956
 21
-9.534
 31
455.455
  0
LINE
  5
100FDA
  8
PUNKTE_LI
 10
13.278
 20
-8.887
 30
455.339
 11
18.718
 21
-9.371
 31
455.345
  0
LINE
  5
100FDB
  8
PUNKTE_LI
 10
8.764
 20
-8.679
 30
455.402
 11
13.278
 21
-8.887
 31
455.339
  0
LINE
  5
100FDC
  8
PUNKTE_LI
 10
8.377
 20
-7.74
 30
455.406
 11
8.764
 21
-8.679
 31
455.402
  0
LINE
  5
100FDD
  8
PUNKTE_LI
 10
4.799
 20
-7.136
 30
455.399
 11
8.377
 21
-7.74
 31
455.406
  0
LINE
  5
100FDE
  8
PUNKTE_LI
 10
2.044
 20
-7.173
 30
455.4
 11
4.799
 21
-7.136
 31
455.399
  0
LINE
  5
100FDF
  8
PUNKTE_LI
 10
1.369
 20
-7.205
 30
455.259
 11
2.044
 21
-7.173
 31
455.4
  0
LINE
  5
100FE0
  8
PUNKTE_LI
 10
0.955
 20
-6.503
 30
455.163
 11
1.369
 21
-7.205
 31
455.259
  0
LINE
  5
100FE1
  8
PUNKTE_LI
 10
-1.056
 20
-6.346
 30
455.088
 11
0.955
 21
-6.503
 31
455.163
  0
LINE
  5
100FE2
  8
PUNKTE_LI
 10
-2.236
 20
-6.393
 30
455.13
 11
-1.056
 21
-6.346
 31
455.088
  0
LINE
  5
100FE3
  8
PUNKTE_LI
 10
-5.004
 20
-4.976
 30
454.91
 11
-2.236
 21
-6.393
 31
455.13
  0
LINE
  5
100FE4
  8
PUNKTE_LI
 10
-6.085
 20
-4.334
 30
454.646
 11
-5.004
 21
-4.976
 31
454.91
  0
LINE
  5
100FE5
  8
PUNKTE_LI
 10
-6.075
 20
-2.708
 30
455.011
 11
-6.085
 21
-4.334
 31
454.646
  0
LINE
  5
100FE6
  8
PUNKTE_LI
 10
-5.924
 20
-2.715
 30
455.117
 11
-6.075
 21
-2.708
 31
455.011
  0
LINE
  5
100FE7
  8
PUNKTE_LI
 10
-3.854
 20
-6.855
 30
454.185
 11
-6.05
 21
-5.454
 31
454.258
  0
LINE
  5
100FE8
  8
PUNKTE_LI
 10
-1.098
 20
-7.626
 30
454.168
 11
-3.854
 21
-6.855
 31
454.185
  0
LINE
  5
100FE9
  8
PUNKTE_LI
 10
-1.537
 20
-9.192
 30
454.079
 11
-1.098
 21
-7.626
 31
454.168
  0
LINE
  5
100FEA
  8
PUNKTE_LI
 10
-0.171
 20
-10.081
 30
454.104
 11
-1.537
 21
-9.192
 31
454.079
  0
LINE
  5
100FEB
  8
PUNKTE_LI
 10
1.115
 20
-10.195
 30
454.099
 11
-0.171
 21
-10.081
 31
454.104
  0
LINE
  5
100FEC
  8
PUNKTE_LI
 10
1.473
 20
-9.36
 30
454.041
 11
1.115
 21
-10.195
 31
454.099
  0
LINE
  5
100FED
  8
PUNKTE_LI
 10
1.26
 20
-7.891
 30
454.092
 11
1.473
 21
-9.36
 31
454.041
  0
LINE
  5
100FEF
  8
PUNKTE_LI
 10
7.935
 20
-8.21
 30
454.18
 11
3.644
 21
-7.808
 31
454.174
  0
LINE
  5
100FF0
  8
PUNKTE_LI
 10
7.979
 20
-9.281
 30
454.157
 11
7.935
 21
-8.21
 31
454.18
  0
LINE
  5
100FF1
  8
PUNKTE_LI
 10
14.007
 20
-9.585
 30
454.195
 11
7.979
 21
-9.281
 31
454.157
  0
LINE
  5
100FF2
  8
PUNKTE_LI
 10
18.688
 20
-9.962
 30
454.18
 11
14.007
 21
-9.585
 31
454.195
  0
LINE
  5
100FF3
  8
PUNKTE_LI
 10
22.762
 20
-10.248
 30
454.455
 11
18.688
 21
-9.962
 31
454.18
  0
LINE
  5
100FF4
  8
PUNKTE_LI
 10
22.334
 20
-13.932
 30
454.422
 11
22.762
 21
-10.248
 31
454.455
  0
LINE
  5
100FF6
  8
PUNKTE_LI
 10
20.517
 20
-16.396
 30
454.435
 11
24.529
 21
-16.111
 31
454.755
  0
LINE
  5
100FF7
  8
PUNKTE_LI
 10
15.688
 20
-15.923
 30
454.288
 11
20.517
 21
-16.396
 31
454.435
  0
LINE
  5
100FF8
  8
PUNKTE_LI
 10
10.418
 20
-15.001
 30
454.039
 11
15.688
 21
-15.923
 31
454.288
  0
LINE
  5
100FF9
  8
PUNKTE_LI
 10
4.944
 20
-14.039
 30
454.065
 11
10.418
 21
-15.001
 31
454.039
  0
LINE
  5
100FFA
  8
PUNKTE_LI
 10
0.505
 20
-13.748
 30
454.06
 11
4.944
 21
-14.039
 31
454.065
  0
LINE
  5
100FFB
  8
PUNKTE_LI
 10
-3.706
 20
-13.621
 30
453.974
 11
0.505
 21
-13.748
 31
454.06
  0
LINE
  5
100FFC
  8
PUNKTE_LI
 10
-4.994
 20
-10.429
 30
454.055
 11
-3.706
 21
-13.621
 31
453.974
  0
LINE
  5
100FFD
  8
PUNKTE_LI
 10
-2.44
 20
-10.579
 30
454.055
 11
-4.994
 21
-10.429
 31
454.055
  0
LINE
  5
100FFE
  8
PUNKTE_LI
 10
3.3
 20
-11.382
 30
454.109
 11
-2.44
 21
-10.579
 31
454.055
  0
LINE
  5
100FFF
  8
PUNKTE_LI
 10
8.509
 20
-11.765
 30
454.122
 11
3.3
 21
-11.382
 31
454.109
  0
LINE
  5
101000
  8
PUNKTE_LI
 10
14.308
 20
-12.464
 30
454.152
 11
8.509
 21
-11.765
 31
454.122
  0
LINE
  5
101001
  8
PUNKTE_LI
 10
19.39
 20
-13.165
 30
454.179
 11
14.308
 21
-12.464
 31
454.152
  0
LINE
  5
101003
  8
PUNKTE_LI
 10
11.812
 20
-16.508
 30
453.702
 11
17.694
 21
-16.826
 31
454.13
  0
LINE
  5
101004
  8
PUNKTE_LI
 10
6.925
 20
-16.835
 30
453.193
 11
11.812
 21
-16.508
 31
453.702
  0
LINE
  5
101005
  8
PUNKTE_LI
 10
2.405
 20
-17.592
 30
452.477
 11
6.925
 21
-16.835
 31
453.193
  0
LINE
  5
101006
  8
PUNKTE_LI
 10
-2.295
 20
-17.921
 30
451.993
 11
2.405
 21
-17.592
 31
452.477
  0
LINE
  5
101007
  8
PUNKTE_LI
 10
-5.934
 20
-18.001
 30
451.77
 11
-2.295
 21
-17.921
 31
451.993
  0
LINE
  5
101008
  8
PUNKTE_LI
 10
-5.611
 20
-14.296
 30
452.846
 11
-5.934
 21
-18.001
 31
451.77
  0
LINE
  5
101009
  8
PUNKTE_LI
 10
-6.096
 20
-10.35
 30
453.471
 11
-5.611
 21
-14.296
 31
452.846
  0
LINE
  5
10100B
  8
PUNKTE_LI
 10
-8.506
 20
-2.309
 30
454.966
 11
-8.438
 21
0.966
 31
455.155
  0
LINE
  5
10100C
  8
PUNKTE_LI
 10
-7.885
 20
-7.185
 30
453.985
 11
-8.506
 21
-2.309
 31
454.966
  0
LINE
  5
10100D
  8
PUNKTE_LI
 10
-7.905
 20
-10.992
 30
453.262
 11
-7.885
 21
-7.185
 31
453.985
  0
LINE
  5
10100E
  8
PUNKTE_LI
 10
-7.791
 20
-14.798
 30
452.69
 11
-7.905
 21
-10.992
 31
453.262
  0
LINE
  5
10100F
  8
PUNKTE_LI
 10
-8.068
 20
-20.077
 30
451.2
 11
-7.791
 21
-14.798
 31
452.69
  0
LINE
  5
101010
  8
PUNKTE_LI
 10
-0.853
 20
-20.12
 30
451.653
 11
-8.068
 21
-20.077
 31
451.2
  0
LINE
  5
101011
  8
PUNKTE_LI
 10
4.688
 20
-20.145
 30
452.176
 11
-0.853
 21
-20.12
 31
451.653
  0
LINE
  5
101012
  8
PUNKTE_LI
 10
8.723
 20
-20.322
 30
452.826
 11
4.688
 21
-20.145
 31
452.176
  0
LINE
  5
101013
  8
PUNKTE_LI
 10
13.414
 20
-20.056
 30
453.397
 11
8.723
 21
-20.322
 31
452.826
  0
LINE
  5
101014
  8
PUNKTE_LI
 10
20.679
 20
-20.014
 30
454.04
 11
13.414
 21
-20.056
 31
453.397
  0
LINE
  5
101015
  8
PUNKTE_LI
 10
25.866
 20
-19.719
 30
454.519
 11
20.679
 21
-20.014
 31
454.04
  0
LINE
  5
101228
  8
ZAUN
  6
CONTINUOUS
 10
22.799
 20
16.677
 30
458.481
 11
22.964
 21
12.069
 31
457.814
  0
LINE
  5
101229
  8
ZAUN
  6
CONTINUOUS
 10
22.964
 20
12.069
 30
457.814
 11
23.289
 21
5.934
 31
457.142
  0
LINE
  5
10122A
  8
ZAUN
  6
CONTINUOUS
 10
23.289
 20
5.934
 30
457.142
 11
23.669
 21
-0.674
 31
456.377
  0
LINE
  5
10122B
  8
ZAUN
  6
CONTINUOUS
 10
23.669
 20
-0.674
 30
456.377
 11
23.74
 21
-2.386
 31
456.158
  0
LINE
  5
10122C
  8
ZAUN
  6
CONTINUOUS
 10
23.74
 20
-2.386
 30
456.158
 11
23.881
 21
-5.116
 31
455.935
  0
LINE
  5
10122D
  8
ZAUN
  6
CONTINUOUS
 10
23.881
 20
-5.116
 30
455.935
 11
24.173
 21
-9.821
 31
455.466
  0
LINE
  5
10122E
  8
ZAUN
  6
CONTINUOUS
 10
24.173
 20
-9.821
 30
455.466
 11
24.529
 21
-16.111
 31
454.755
  0
LINE
  5
10122F
  8
PUNKTE_LI
  6
CONTINUOUS
 10
3.644
 20
-7.808
 30
454.174
 11
1.26
 21
-7.891
 31
454.092
  0
INSERT
  5
101255
  8
SYMBOLE
  6
CONTINUOUS
  2
KANALSCHACHT
 10
16.566
 20
-4.316
 30
455.734
  0
INSERT
  5
101256
  8
SYMBOLE
  6
CONTINUOUS
  2
KANALSCHACHT
 10
0.328
 20
-9.056
 30
453.726
  0
INSERT
  5
101257
  8
SYMBOLE
  6
CONTINUOUS
  2
KANALSCHACHT
 10
-0.734
 20
-2.877
 30
455.326
  0
INSERT
  5
101258
  8
SYMBOLE
  6
CONTINUOUS
  2
KANALSCHACHT
 10
21.158
 20
20.084
 30
459.568
  0
INSERT
  5
101259
  8
SYMBOLE
  6
CONTINUOUS
  2
KANALSCHACHT
 10
-0.649
 20
12.0
 30
458.204
  0
LINE
  5
10125A
  8
PUNKTE_LI
  6
CONTINUOUS
 10
-16.704
 20
14.717
 30
457.604
 11
-15.036
 21
13.459
 31
457.635
  0
LINE
  5
10125B
  8
PUNKTE_LI
  6
CONTINUOUS
 10
-15.036
 20
13.459
 30
457.635
 11
-12.463
 21
13.618
 31
457.727
  0
LINE
  5
10125C
  8
PUNKTE_LI
  6
CONTINUOUS
 10
-15.093
 20
13.34
 30
457.649
 11
-7.926
 21
13.798
 31
457.951
  0
LINE
  5
10125D
  8
PUNKTE_LI
  6
CONTINUOUS
 10
-7.973
 20
13.937
 30
457.923
 11
-5.975
 21
14.102
 31
458.026
  0
LINE
  5
10125E
  8
PUNKTE_LI
  6
CONTINUOUS
 10
-7.926
 20
13.798
 30
457.951
 11
-5.957
 21
13.963
 31
458.051
  0
LINE
  5
10125F
  8
PUNKTE_LI
  6
CONTINUOUS
 10
-5.957
 20
13.963
 30
458.051
 11
-2.899
 21
14.301
 31
458.195
  0
LINE
  5
101260
  8
PUNKTE_LI
  6
CONTINUOUS
 10
-2.939
 20
14.427
 30
458.163
 11
-0.92
 21
14.741
 31
458.276
  0
LINE
  5
101261
  8
PUNKTE_LI
  6
CONTINUOUS
 10
-0.918
 20
14.62
 30
458.303
 11
1.084
 21
14.916
 31
458.404
  0
LINE
  5
101262
  8
PUNKTE_LI
  6
CONTINUOUS
 10
1.088
 20
15.018
 30
458.378
 11
3.1
 21
15.349
 31
458.48
  0
LINE
  5
101263
  8
PUNKTE_LI
  6
CONTINUOUS
 10
3.115
 20
15.217
 30
458.524
 11
5.111
 21
15.553
 31
458.616
  0
LINE
  5
101265
  8
PUNKTE_LI
  6
CONTINUOUS
 10
5.071
 20
15.663
 30
458.582
 11
6.069
 21
15.826
 31
458.652
  0
LINE
  5
101266
  8
PUNKTE_LI
  6
CONTINUOUS
 10
6.101
 20
15.691
 30
458.771
 11
8.473
 21
16.13
 31
458.921
  0
LINE
  5
101267
  8
PUNKTE_LI
  6
CONTINUOUS
 10
8.448
 20
16.251
 30
458.793
 11
10.201
 21
16.588
 31
458.901
  0
LINE
  5
101268
  8
PUNKTE_LI
  6
CONTINUOUS
 10
10.201
 20
16.588
 30
458.901
 11
11.296
 21
16.776
 31
458.955
  0
LINE
  5
101269
  8
PUNKTE_LI
  6
CONTINUOUS
 10
10.245
 20
16.468
 30
459.023
 11
11.319
 21
16.636
 31
459.086
  0
LINE
  5
10126A
  8
PUNKTE_LI
  6
CONTINUOUS
 10
11.296
 20
16.776
 30
458.955
 11
13.139
 21
17.178
 31
459.071
  0
LINE
  5
10126B
  8
PUNKTE_LI
  6
CONTINUOUS
 10
13.196
 20
17.046
 30
459.19
 11
15.051
 21
17.401
 31
459.294
  0
LINE
  5
10126C
  8
PUNKTE_LI
  6
CONTINUOUS
 10
15.009
 20
17.539
 30
459.177
 11
16.898
 21
17.976
 31
459.287
  0
LINE
  5
10126D
  8
PUNKTE_LI
  6
CONTINUOUS
 10
19.617
 20
18.689
 30
459.443
 11
18.744
 21
18.42
 31
459.374
  0
LINE
  5
10126E
  8
PUNKTE_LI
  6
CONTINUOUS
 10
18.751
 20
18.309
 30
459.498
 11
16.937
 21
17.833
 31
459.402
  0
LINE
  5
10126F
  8
PUNKTE_LI
  6
CONTINUOUS
 10
19.682
 20
18.574
 30
459.552
 11
20.56
 21
18.925
 31
459.601
  0
LINE
  5
101270
  8
PUNKTE_LI
  6
CONTINUOUS
 10
20.501
 20
19.037
 30
459.488
 11
22.191
 21
19.913
 31
459.581
  0
LINE
  5
101271
  8
PUNKTE_LI
  6
CONTINUOUS
 10
22.264
 20
19.809
 30
459.697
 11
20.56
 21
18.925
 31
459.601
  0
LINE
  5
101272
  8
PUNKTE_LI
  6
CONTINUOUS
 10
22.191
 20
19.913
 30
459.581
 11
23.786
 21
20.851
 31
459.657
  0
LINE
  5
101273
  8
PUNKTE_LI
  6
CONTINUOUS
 10
23.85
 20
20.72
 30
459.765
 11
24.655
 21
21.158
 31
459.791
  0
LINE
  5
101274
  8
PUNKTE_LI
  6
CONTINUOUS
 10
24.612
 20
21.266
 30
459.685
 11
25.481
 21
21.611
 31
459.686
  0
LINE
  5
101276
  8
PUNKTE_LI
  6
CONTINUOUS
 10
25.498
 20
21.463
 30
459.799
 11
26.41
 21
21.721
 31
459.717
  0
LINE
  5
101277
  8
PUNKTE_LI
  6
CONTINUOUS
 10
26.41
 20
21.721
 30
459.717
 11
26.964
 21
21.768
 31
459.73
  0
LINE
  5
101278
  8
PUNKTE_LI
  6
CONTINUOUS
 10
27.864
 20
21.974
 30
459.685
 11
26.929
 21
21.936
 31
459.692
  0
LINE
  5
101279
  8
PUNKTE_LI
  6
CONTINUOUS
 10
26.385
 20
21.854
 30
459.687
 11
25.481
 21
21.611
 31
459.686
  0
LINE
  5
10127A
  8
PUNKTE_LI
  6
CONTINUOUS
 10
13.959
 20
14.419
 30
457.744
 11
14.101
 21
11.878
 31
457.672
  0
LINE
  5
10127B
  8
PUNKTE_LI
  6
CONTINUOUS
 10
22.37
 20
11.742
 30
457.488
 11
22.85
 21
5.874
 31
456.841
  0
LINE
  5
10127C
  8
PUNKTE_LI
  6
CONTINUOUS
 10
22.85
 20
5.874
 30
456.841
 11
23.092
 21
-0.793
 31
455.977
  0
LINE
  5
10127D
  8
PUNKTE_LI
  6
CONTINUOUS
 10
23.092
 20
-0.793
 30
455.977
 11
23.092
 21
-2.044
 31
455.803
  0
LINE
  5
10127E
  8
PUNKTE_LI
  6
CONTINUOUS
 10
23.092
 20
-2.044
 30
455.803
 11
23.108
 21
-5.03
 31
455.61
  0
LINE
  5
10127F
  8
PUNKTE_LI
  6
CONTINUOUS
 10
23.092
 20
-0.793
 30
455.977
 11
19.203
 21
-0.606
 31
455.583
  0
LINE
  5
101280
  8
PUNKTE_LI
  6
CONTINUOUS
 10
23.108
 20
-5.03
 30
455.61
 11
22.956
 21
-9.534
 31
455.455
  0
LINE
  5
101281
  8
PUNKTE_LI
  6
CONTINUOUS
 10
-6.075
 20
-2.708
 30
455.011
 11
-5.924
 21
-2.715
 31
455.117
  0
LINE
  5
101282
  8
PUNKTE_LI
  6
CONTINUOUS
 10
-5.924
 20
-2.715
 30
455.117
 11
-5.922
 21
1.734
 31
455.571
  0
INSERT
  5
101283
  8
SYMBOLE
  6
CONTINUOUS
  2
ABLAUF
 10
10.176
 20
16.736
 30
458.901
 41
0.5
 42
0.3
 50
9.772
  0
INSERT
  5
101284
  8
SYMBOLE
  6
CONTINUOUS
  2
ABLAUF
 10
-14.696
 20
13.64
 30
457.642
 41
0.5
 42
0.3
 50
3.278
  0
TEXT
  5
10128B
  8
PUNKTE_H
 10
15.771
 20
-0.357
 30
455.586
 40
0.2
  1
55,59
  0
TEXT
  5
10128C
  8
PUNKTE_H
 10
15.764
 20
5.182
 30
455.558
 40
0.2
  1
55,56
  0
TEXT
  5
10128D
  8
PUNKTE_H
 10
15.809
 20
7.611
 30
455.558
 40
0.2
  1
55,56
  0
TEXT
  5
10128E
  8
PUNKTE_H
 10
15.825
 20
7.915
 30
455.733
 40
0.2
  1
55,73
  0
TEXT
  5
10128F
  8
PUNKTE_H
 10
16.89
 20
8.02
 30
455.715
 40
0.2
  1
55,71
  0
TEXT
  5
101290
  8
PUNKTE_H
 10
16.853
 20
10.907
 30
457.251
 40
0.2
  1
57,25
  0
TEXT
  5
101291
  8
PUNKTE_H
 10
18.637
 20
10.303
 30
457.251
 40
0.2
  1
57,25
  0
TEXT
  5
101292
  8
PUNKTE_H
 10
18.791
 20
6.352
 30
456.788
 40
0.2
  1
56,79
  0
TEXT
  5
101293
  8
PUNKTE_H
 10
19.699
 20
2.365
 30
456.447
 40
0.2
  1
56,45
  0
TEXT
  5
101294
  8
PUNKTE_H
 10
19.629
 20
0.759
 30
456.128
 40
0.2
  1
56,13
  0
TEXT
  5
101295
  8
PUNKTE_H
 10
19.403
 20
-0.906
 30
455.583
 40
0.2
  1
55,58
  0
TEXT
  5
101296
  8
PUNKTE_H
 10
17.648
 20
2.787
 30
455.596
 40
0.2
  1
55,60
  0
TEXT
  5
101297
  8
PUNKTE_H
 10
16.745
 20
6.338
 30
455.609
 40
0.2
  1
55,61
  0
TEXT
  5
101298
  8
PUNKTE_H
 10
17.779
 20
7.414
 30
455.657
 40
0.2
  1
55,66
  0
TEXT
  5
101299
  8
PUNKTE_H
 10
16.875
 20
11.909
 30
457.46
 40
0.2
  1
57,46
  0
TEXT
  5
10129A
  8
PUNKTE_H
 10
14.246
 20
11.996
 30
457.672
 40
0.2
  1
57,67
  0
TEXT
  5
10129B
  8
PUNKTE_H
 10
11.9
 20
11.575
 30
458.124
 40
0.2
  1
58,12
  0
TEXT
  5
10129C
  8
GEBAEUDE_H
 10
13.105
 20
11.4
 30
458.597
 40
0.2
  1
Stufe=58,60
  0
TEXT
  5
10129D
  8
GEBAEUDE_H
 10
12.959
 20
11.912
 30
458.701
 40
0.2
  1
OKM=58,70
 50
45.0
  0
TEXT
  5
10129E
  8
GEBAEUDE_H
 10
13.879
 20
11.937
 30
458.701
 40
0.2
  1
OKM=58,70
 50
45.0
  0
TEXT
  5
10129F
  8
GEBAEUDE_H
 10
15.665
 20
11.928
 30
457.725
 40
0.2
  1
OKM=57,73
 50
45.0
  0
TEXT
  5
1012A0
  8
GEBAEUDE_H
 10
16.461
 20
11.925
 30
457.723
 40
0.2
  1
OKM=57,72
 50
45.0
  0
TEXT
  5
1012A1
  8
GEBAEUDE_H
 10
16.752
 20
10.312
 30
457.72
 40
0.2
  1
OKM=57,72
  0
TEXT
  5
1012A2
  8
GEBAEUDE_H
 10
16.822
 20
8.465
 30
456.421
 40
0.2
  1
OKM=56,42
  0
TEXT
  5
1012A3
  8
GEBAEUDE_H
 10
16.176
 20
8.602
 30
455.779
 40
0.2
  1
Stufe=55,78
 50
90.0
  0
TEXT
  5
1012A4
  8
GEBAEUDE_H
 10
15.635
 20
5.673
 30
455.916
 40
0.2
  1
55,92
  0
TEXT
  5
1012A5
  8
PUNKTE_H
 10
21.944
 20
-1.065
 30
455.977
 40
0.2
  1
55,98
  0
TEXT
  5
1012A6
  8
PUNKTE_H
 10
23.869
 20
-0.974
 30
456.377
 40
0.2
  1
56,38
  0
TEXT
  5
1012A7
  8
PUNKTE_H
 10
23.489
 20
5.634
 30
457.142
 40
0.2
  1
57,14
  0
TEXT
  5
1012A8
  8
PUNKTE_H
 10
21.842
 20
5.544
 30
456.841
 40
0.2
  1
56,84
  0
TEXT
  5
1012A9
  8
PUNKTE_H
 10
23.164
 20
11.769
 30
457.814
 40
0.2
  1
57,81
  0
TEXT
  5
1012AA
  8
PUNKTE_H
 10
21.272
 20
11.792
 30
457.488
 40
0.2
  1
57,49
  0
TEXT
  5
1012AB
  8
PUNKTE_H
 10
21.056
 20
13.704
 30
457.756
 40
0.2
  1
57,76
  0
TEXT
  5
1012AC
  8
PUNKTE_H
 10
18.938
 20
14.575
 30
457.836
 40
0.2
  1
57,84
  0
TEXT
  5
1012AD
  8
PUNKTE_H
 10
16.332
 20
14.173
 30
457.664
 40
0.2
  1
57,66
  0
TEXT
  5
1012AE
  8
PUNKTE_H
 10
14.159
 20
14.119
 30
457.744
 40
0.2
  1
57,74
  0
TEXT
  5
1012AF
  8
PUNKTE_H
 10
12.232
 20
14.219
 30
458.337
 40
0.2
  1
58,34
  0
TEXT
  5
1012B0
  8
PUNKTE_H
 10
11.199
 20
12.009
 30
458.279
 40
0.2
  1
58,28
  0
TEXT
  5
1012B1
  8
PUNKTE_H
 10
12.965
 20
10.47
 30
458.254
 40
0.2
  1
58,25
  0
TEXT
  5
1012B2
  8
PUNKTE_H
 10
9.197
 20
10.826
 30
458.228
 40
0.2
  1
58,23
  0
TEXT
  5
1012B3
  8
GEBAEUDE_H
 10
8.091
 20
9.96
 30
458.743
 40
0.2
  1
Boden=58,74
  0
TEXT
  5
1012B4
  8
PUNKTE_H
 10
9.138
 20
11.517
 30
458.339
 40
0.2
  1
58,34
  0
TEXT
  5
1012B5
  8
PUNKTE_H
 10
5.884
 20
11.486
 30
458.36
 40
0.2
  1
58,36
  0
TEXT
  5
1012B6
  8
PUNKTE_H
 10
5.866
 20
10.864
 30
458.332
 40
0.2
  1
58,33
  0
TEXT
  5
1012B7
  8
PUNKTE_H
 10
0.45
 20
10.44
 30
458.128
 40
0.2
  1
58,13
  0
TEXT
  5
1012B8
  8
GEBAEUDE_H
 10
-5.094
 20
8.289
 30
458.649
 40
0.2
  1
Boden=58,65
  0
TEXT
  5
1012B9
  8
PUNKTE_H
 10
-3.935
 20
8.991
 30
458.139
 40
0.2
  1
58,14
  0
TEXT
  5
1012BA
  8
PUNKTE_H
 10
-5.837
 20
8.978
 30
458.076
 40
0.2
  1
58,08
  0
TEXT
  5
1012BB
  8
GEBAEUDE_H
 10
-7.966
 20
8.799
 30
458.619
 40
0.2
  1
OKM=58,62
  0
TEXT
  5
1012BC
  8
PUNKTE_H
 10
-5.745
 20
10.252
 30
457.889
 40
0.2
  1
57,89
  0
TEXT
  5
1012BD
  8
PUNKTE_H
 10
-5.743
 20
11.792
 30
457.712
 40
0.2
  1
57,71
  0
TEXT
  5
1012BE
  8
PUNKTE_H
 10
-1.513
 20
11.542
 30
457.854
 40
0.2
  1
57,85
  0
TEXT
  5
1012BF
  8
PUNKTE_H
 10
-1.272
 20
10.297
 30
457.935
 40
0.2
  1
57,94
  0
TEXT
  5
1012C0
  8
EINBAUTEN_H
 10
-0.449
 20
11.7
 30
458.204
 40
0.2
  1
58,20
  0
TEXT
  5
1012C1
  8
PUNKTE_H
 10
-0.484
 20
12.242
 30
458.015
 40
0.2
  1
58,01
  0
TEXT
  5
1012C2
  8
PUNKTE_H
 10
-0.383
 20
13.394
 30
458.114
 40
0.2
  1
58,11
  0
TEXT
  5
1012C3
  8
PUNKTE_H
 10
5.385
 20
12.25
 30
458.247
 40
0.2
  1
58,25
  0
TEXT
  5
1012C4
  8
PUNKTE_H
 10
6.119
 20
14.013
 30
458.23
 40
0.2
  1
58,23
  0
TEXT
  5
1012C5
  8
PUNKTE_H
 10
9.153
 20
14.217
 30
458.289
 40
0.2
  1
58,29
  0
TEXT
  5
1012C8
  8
PUNKTE_H
 10
8.369
 20
15.227
 30
458.714
 40
0.2
  1
58,71
  0
TEXT
  5
1012C9
  8
PUNKTE_H
 10
10.816
 20
15.377
 30
458.911
 40
0.2
  1
58,91
  0
TEXT
  5
1012CA
  8
PUNKTE_H
 10
13.594
 20
16.258
 30
458.935
 40
0.2
  1
58,94
  0
TEXT
  5
1012CB
  8
PUNKTE_H
 10
17.515
 20
17.219
 30
459.177
 40
0.2
  1
59,18
  0
TEXT
  5
1012CC
  8
PUNKTE_H
 10
22.131
 20
17.959
 30
459.378
 40
0.2
  1
59,38
  0
TEXT
  5
1012CD
  8
PUNKTE_H
 10
22.999
 20
16.377
 30
458.481
 40
0.2
  1
58,48
  0
TEXT
  5
1012CE
  8
PUNKTE_H
 10
28.003
 20
22.138
 30
459.685
 40
0.2
  1
59,69
  0
TEXT
  5
1012CF
  8
PUNKTE_H
 10
28.071
 20
21.542
 30
459.704
 40
0.2
  1
59,70
  0
TEXT
  5
1012D0
  8
PUNKTE_H
 10
27.164
 20
21.468
 30
459.73
 40
0.2
  1
59,73
  0
TEXT
  5
1012D1
  8
PUNKTE_H
 10
26.518
 20
22.161
 30
459.692
 40
0.2
  1
59,69
  0
TEXT
  5
1012D2
  8
PUNKTE_H
 10
25.338
 20
21.92
 30
459.687
 40
0.2
  1
59,69
  0
TEXT
  5
1012D3
  8
PUNKTE_H
 10
26.304
 20
21.397
 30
459.717
 40
0.2
  1
59,72
  0
TEXT
  5
1012D4
  8
PUNKTE_H
 10
24.434
 20
21.677
 30
459.686
 40
0.2
  1
59,69
  0
TEXT
  5
1012D5
  8
PUNKTE_H
 10
25.698
 20
21.163
 30
459.799
 40
0.2
  1
59,80
  0
TEXT
  5
1012D6
  8
PUNKTE_H
 10
24.855
 20
20.858
 30
459.791
 40
0.2
  1
59,79
  0
TEXT
  5
1012D7
  8
PUNKTE_H
 10
23.565
 20
21.332
 30
459.685
 40
0.2
  1
59,69
  0
TEXT
  5
1012D8
  8
PUNKTE_H
 10
22.739
 20
20.917
 30
459.657
 40
0.2
  1
59,66
  0
TEXT
  5
1012D9
  8
PUNKTE_H
 10
24.05
 20
20.42
 30
459.765
 40
0.2
  1
59,76
  0
TEXT
  5
1012DA
  8
PUNKTE_H
 10
22.464
 20
19.509
 30
459.697
 40
0.2
  1
59,70
  0
TEXT
  5
1012DB
  8
PUNKTE_H
 10
21.707
 20
20.214
 30
459.581
 40
0.2
  1
59,58
  0
TEXT
  5
1012DC
  8
PUNKTE_H
 10
20.76
 20
18.625
 30
459.601
 40
0.2
  1
59,60
  0
TEXT
  5
1012DD
  8
PUNKTE_H
 10
19.569
 20
19.208
 30
459.488
 40
0.2
  1
59,49
  0
TEXT
  5
1012DE
  8
PUNKTE_H
 10
18.685
 20
18.86
 30
459.443
 40
0.2
  1
59,44
  0
TEXT
  5
1012DF
  8
PUNKTE_H
 10
19.882
 20
18.274
 30
459.552
 40
0.2
  1
59,55
  0
TEXT
  5
1012E0
  8
PUNKTE_H
 10
18.951
 20
18.009
 30
459.498
 40
0.2
  1
59,50
  0
TEXT
  5
1012E1
  8
PUNKTE_H
 10
17.812
 20
18.591
 30
459.374
 40
0.2
  1
59,37
  0
TEXT
  5
1012E2
  8
PUNKTE_H
 10
15.966
 20
18.147
 30
459.287
 40
0.2
  1
59,29
  0
TEXT
  5
1012E3
  8
PUNKTE_H
 10
17.137
 20
17.651
 30
459.402
 40
0.2
  1
59,40
  0
TEXT
  5
1012E4
  8
PUNKTE_H
 10
15.251
 20
17.101
 30
459.294
 40
0.2
  1
59,29
  0
TEXT
  5
1012E5
  8
PUNKTE_H
 10
13.999
 20
17.625
 30
459.177
 40
0.2
  1
59,18
  0
TEXT
  5
1012E6
  8
PUNKTE_H
 10
12.129
 20
17.264
 30
459.071
 40
0.2
  1
59,07
  0
TEXT
  5
1012E7
  8
PUNKTE_H
 10
13.396
 20
16.746
 30
459.19
 40
0.2
  1
59,19
  0
TEXT
  5
1012E8
  8
PUNKTE_H
 10
11.519
 20
16.336
 30
459.086
 40
0.2
  1
59,09
  0
TEXT
  5
1012E9
  8
PUNKTE_H
 10
10.286
 20
16.862
 30
458.955
 40
0.2
  1
58,95
  0
TEXT
  5
1012EA
  8
EINBAUTEN_H
 10
9.191
 20
16.674
 30
458.901
 40
0.2
  1
58,90
  0
TEXT
  5
1012EB
  8
PUNKTE_H
 10
10.445
 20
16.168
 30
459.023
 40
0.2
  1
59,02
  0
TEXT
  5
1012EC
  8
PUNKTE_H
 10
8.673
 20
15.83
 30
458.921
 40
0.2
  1
58,92
  0
TEXT
  5
1012ED
  8
PUNKTE_H
 10
7.438
 20
16.337
 30
458.793
 40
0.2
  1
58,79
  0
TEXT
  5
1012EE
  8
PUNKTE_H
 10
5.059
 20
15.912
 30
458.652
 40
0.2
  1
58,65
  0
TEXT
  5
1012EF
  8
PUNKTE_H
 10
6.301
 20
15.391
 30
458.771
 40
0.2
  1
58,77
  0
TEXT
  5
1012F0
  8
PUNKTE_H
 10
4.479
 20
15.208
 30
458.616
 40
0.2
  1
58,62
  0
TEXT
  5
1012F1
  8
PUNKTE_H
 10
4.086
 20
15.725
 30
458.582
 40
0.2
  1
58,58
  0
TEXT
  5
1012F2
  8
PUNKTE_H
 10
2.115
 20
15.411
 30
458.48
 40
0.2
  1
58,48
  0
TEXT
  5
1012F3
  8
PUNKTE_H
 10
3.315
 20
14.917
 30
458.524
 40
0.2
  1
58,52
  0
TEXT
  5
1012F4
  8
PUNKTE_H
 10
1.284
 20
14.616
 30
458.404
 40
0.2
  1
58,40
  0
TEXT
  5
1012F5
  8
PUNKTE_H
 10
0.103
 20
15.08
 30
458.378
 40
0.2
  1
58,38
  0
TEXT
  5
1012F6
  8
PUNKTE_H
 10
-1.905
 20
14.803
 30
458.276
 40
0.2
  1
58,28
  0
TEXT
  5
1012F7
  8
PUNKTE_H
 10
-0.718
 20
14.32
 30
458.303
 40
0.2
  1
58,30
  0
TEXT
  5
1012F8
  8
PUNKTE_H
 10
-2.699
 20
14.001
 30
458.195
 40
0.2
  1
58,19
  0
TEXT
  5
1012F9
  8
PUNKTE_H
 10
-3.924
 20
14.489
 30
458.163
 40
0.2
  1
58,16
  0
TEXT
  5
1012FA
  8
PUNKTE_H
 10
-5.79
 20
14.219
 30
458.026
 40
0.2
  1
58,03
  0
TEXT
  5
1012FB
  8
PUNKTE_H
 10
-5.757
 20
13.663
 30
458.051
 40
0.2
  1
58,05
  0
TEXT
  5
1012FD
  8
GEBAEUDE_H
 10
-5.83
 20
13.394
 30
458.079
 40
0.2
  1
OKM=58,08
  0
TEXT
  5
1012FE
  8
PUNKTE_H
 10
-8.031
 20
13.433
 30
457.951
 40
0.2
  1
57,95
  0
TEXT
  5
1012FF
  8
PUNKTE_H
 10
-7.788
 20
14.054
 30
457.923
 40
0.2
  1
57,92
  0
TEXT
  5
101300
  8
PUNKTE_H
 10
-12.278
 20
13.735
 30
457.727
 40
0.2
  1
57,73
  0
TEXT
  5
101301
  8
EINBAUTEN_H
 10
-14.348
 20
13.684
 30
457.642
 40
0.2
  1
57,64
  0
TEXT
  5
101302
  8
PUNKTE_H
 10
-15.929
 20
13.583
 30
457.635
 40
0.2
  1
57,63
  0
TEXT
  5
101303
  8
PUNKTE_H
 10
-16.129
 20
13.025
 30
457.649
 40
0.2
  1
57,65
  0
TEXT
  5
101304
  8
PUNKTE_H
 10
-17.682
 20
14.255
 30
457.709
 40
0.2
  1
57,71
  0
TEXT
  5
101305
  8
PUNKTE_H
 10
-16.519
 20
14.834
 30
457.604
 40
0.2
  1
57,60
  0
TEXT
  5
101309
  8
PUNKTE_H
 10
12.398
 20
21.547
 30
459.254
 40
0.2
  1
59,25
  0
TEXT
  5
10130A
  8
PUNKTE_H
 10
18.343
 20
22.929
 30
459.633
 40
0.2
  1
59,63
  0
TEXT
  5
10130B
  8
EINBAUTEN_H
 10
19.79
 20
20.361
 30
459.568
 40
0.2
  1
59,57
  0
TEXT
  5
10130C
  8
EINBAUTEN_H
 10
16.766
 20
-4.616
 30
455.734
 40
0.2
  1
55,73
  0
TEXT
  5
10130D
  8
GEBAEUDE_H
 10
15.712
 20
0.755
 30
455.922
 40
0.2
  1
55,92
  0
TEXT
  5
10130E
  8
GEBAEUDE_H
 10
12.206
 20
0.068
 30
455.917
 40
0.2
  1
55,92
  0
TEXT
  5
10130F
  8
PUNKTE_H
 10
13.568
 20
-0.354
 30
455.531
 40
0.2
  1
55,53
  0
TEXT
  5
101310
  8
PUNKTE_H
 10
10.43
 20
-0.421
 30
455.462
 40
0.2
  1
55,46
  0
TEXT
  5
101311
  8
GEBAEUDE_H
 10
10.375
 20
-1.544
 30
455.788
 40
0.2
  1
55,79
  0
TEXT
  5
101312
  8
PUNKTE_H
 10
10.41
 20
-2.413
 30
455.559
 40
0.2
  1
55,56
  0
TEXT
  5
101313
  8
PUNKTE_H
 10
8.048
 20
-2.428
 30
455.553
 40
0.2
  1
55,55
  0
TEXT
  5
101314
  8
GEBAEUDE_H
 10
8.023
 20
-2.075
 30
455.779
 40
0.2
  1
55,78
  0
TEXT
  5
101315
  8
PUNKTE_H
 10
5.813
 20
-2.435
 30
455.498
 40
0.2
  1
55,50
  0
TEXT
  5
101316
  8
GEBAEUDE_H
 10
5.891
 20
-1.183
 30
455.793
 40
0.2
  1
55,79
  0
TEXT
  5
101317
  8
GEBAEUDE_H
 10
7.089
 20
-1.665
 30
455.942
 40
0.2
  1
Boden=55,94
  0
TEXT
  5
101318
  8
PUNKTE_H
 10
4.402
 20
-0.837
 30
455.52
 40
0.2
  1
55,52
  0
TEXT
  5
101319
  8
PUNKTE_H
 10
4.665
 20
-0.308
 30
455.52
 40
0.2
  1
55,52
  0
TEXT
  5
10131A
  8
GEBAEUDE_H
 10
1.961
 20
0.058
 30
455.925
 40
0.2
  1
55,93
  0
TEXT
  5
10131B
  8
PUNKTE_H
 10
3.436
 20
-0.413
 30
455.479
 40
0.2
  1
55,48
  0
TEXT
  5
10131C
  8
PUNKTE_H
 10
-0.552
 20
-0.534
 30
455.378
 40
0.2
  1
55,38
  0
TEXT
  5
10131D
  8
PUNKTE_H
 10
-4.489
 20
1.413
 30
455.555
 40
0.2
  1
55,56
  0
TEXT
  5
10131E
  8
GEBAEUDE_H
 10
-4.54
 20
1.943
 30
455.907
 40
0.2
  1
55,91
  0
TEXT
  5
10131F
  8
GEBAEUDE_H
 10
-7.919
 20
1.666
 30
455.781
 40
0.2
  1
OKM=55,78
  0
TEXT
  5
101320
  8
PUNKTE_H
 10
-5.722
 20
1.434
 30
455.571
 40
0.2
  1
55,57
  0
TEXT
  5
101321
  8
PUNKTE_H
 10
-5.724
 20
0.374
 30
455.552
 40
0.2
  1
55,55
  0
TEXT
  5
101322
  8
PUNKTE_H
 10
-1.851
 20
-0.509
 30
455.401
 40
0.2
  1
55,40
  0
TEXT
  5
101323
  8
PUNKTE_H
 10
-2.202
 20
-2.644
 30
455.155
 40
0.2
  1
55,15
  0
TEXT
  5
101324
  8
EINBAUTEN
 10
-0.534
 20
-3.177
 30
455.326
 40
0.2
  1
55,33
  0
TEXT
  5
101325
  8
PUNKTE_H
 10
1.989
 20
-2.608
 30
455.456
 40
0.2
  1
55,46
  0
TEXT
  5
101326
  8
PUNKTE_H
 10
5.142
 20
-4.015
 30
455.456
 40
0.2
  1
55,46
  0
TEXT
  5
101327
  8
PUNKTE_H
 10
10.85
 20
-4.197
 30
455.412
 40
0.2
  1
55,41
  0
TEXT
  5
101328
  8
PUNKTE_H
 10
12.914
 20
-2.573
 30
455.417
 40
0.2
  1
55,42
  0
TEXT
  5
101329
  8
PUNKTE_H
 10
16.851
 20
-2.294
 30
455.449
 40
0.2
  1
55,45
  0
TEXT
  5
10132A
  8
PUNKTE_H
 10
21.944
 20
-2.316
 30
455.803
 40
0.2
  1
55,80
  0
TEXT
  5
10132B
  8
PUNKTE_H
 10
23.94
 20
-2.686
 30
456.158
 40
0.2
  1
56,16
  0
TEXT
  5
10132C
  8
PUNKTE_H
 10
24.081
 20
-5.416
 30
455.935
 40
0.2
  1
55,94
  0
TEXT
  5
10132D
  8
PUNKTE_H
 10
21.96
 20
-5.302
 30
455.61
 40
0.2
  1
55,61
  0
TEXT
  5
10132E
  8
PUNKTE_H
 10
24.373
 20
-10.121
 30
455.466
 40
0.2
  1
55,47
  0
TEXT
  5
10132F
  8
PUNKTE_H
 10
21.92
 20
-9.301
 30
455.455
 40
0.2
  1
55,45
  0
TEXT
  5
101330
  8
PUNKTE_H
 10
18.946
 20
-9.25
 30
455.345
 40
0.2
  1
55,35
  0
TEXT
  5
101331
  8
PUNKTE_H
 10
13.506
 20
-8.766
 30
455.339
 40
0.2
  1
55,34
  0
TEXT
  5
101332
  8
PUNKTE_H
 10
8.992
 20
-8.558
 30
455.402
 40
0.2
  1
55,40
  0
TEXT
  5
101333
  8
PUNKTE_H
 10
8.605
 20
-7.619
 30
455.406
 40
0.2
  1
55,41
  0
TEXT
  5
101334
  8
PUNKTE_H
 10
4.999
 20
-7.436
 30
455.399
 40
0.2
  1
55,40
  0
TEXT
  5
101335
  8
PUNKTE_H
 10
2.244
 20
-7.473
 30
455.4
 40
0.2
  1
55,40
  0
TEXT
  5
101336
  8
PUNKTE_H
 10
1.503
 20
-7.043
 30
455.259
 40
0.2
  1
55,26
  0
TEXT
  5
101337
  8
PUNKTE_H
 10
1.205
 20
-6.341
 30
455.163
 40
0.2
  1
55,16
  0
TEXT
  5
101338
  8
PUNKTE_H
 10
-0.89
 20
-6.168
 30
455.088
 40
0.2
  1
55,09
  0
TEXT
  5
101339
  8
PUNKTE_H
 10
-2.07
 20
-6.215
 30
455.13
 40
0.2
  1
55,13
  0
TEXT
  5
10133A
  8
PUNKTE_H
 10
-4.77
 20
-4.968
 30
454.91
 40
0.2
  1
54,91
  0
TEXT
  5
10133B
  8
PUNKTE_H
 10
-5.851
 20
-4.326
 30
454.646
 40
0.2
  1
54,65
  0
TEXT
  5
10133C
  8
PUNKTE_H
 10
-6.929
 20
-3.229
 30
455.011
 40
0.2
  1
55,01
  0
TEXT
  5
10133D
  8
PUNKTE_H
 10
-5.724
 20
-3.015
 30
455.117
 40
0.2
  1
55,12
  0
TEXT
  5
10133E
  8
GEBAEUDE_H
 10
-7.88
 20
-2.922
 30
455.663
 40
0.2
  1
OKM=55,66
  0
TEXT
  5
10133F
  8
PUNKTE_H
 10
-5.816
 20
-5.481
 30
454.258
 40
0.2
  1
54,26
  0
TEXT
  5
101340
  8
PUNKTE_H
 10
-3.654
 20
-6.847
 30
454.185
 40
0.2
  1
54,19
  0
TEXT
  5
101341
  8
PUNKTE_H
 10
-0.898
 20
-7.926
 30
454.168
 40
0.2
  1
54,17
  0
TEXT
  5
101342
  8
PUNKTE_H
 10
-1.337
 20
-9.492
 30
454.079
 40
0.2
  1
54,08
  0
TEXT
  5
101343
  8
PUNKTE_H
 10
0.029
 20
-10.381
 30
454.104
 40
0.2
  1
54,10
  0
TEXT
  5
101344
  8
PUNKTE_H
 10
1.315
 20
-10.495
 30
454.099
 40
0.2
  1
54,10
  0
TEXT
  5
101345
  8
PUNKTE_H
 10
1.673
 20
-9.66
 30
454.041
 40
0.2
  1
54,04
  0
TEXT
  5
101346
  8
PUNKTE_H
 10
1.46
 20
-8.191
 30
454.092
 40
0.2
  1
54,09
  0
TEXT
  5
101347
  8
EINBAUTEN_H
 10
0.528
 20
-9.356
 30
453.726
 40
0.2
  1
53,73
  0
TEXT
  5
101348
  8
EINBAUTEN_H
 10
7.574
 20
-10.196
 30
454.047
 40
0.2
  1
Rohr=54,05
  0
TEXT
  5
101349
  8
PUNKTE_H
 10
3.844
 20
-8.108
 30
454.174
 40
0.2
  1
54,17
  0
TEXT
  5
10134A
  8
PUNKTE_H
 10
6.862
 20
-8.543
 30
454.18
 40
0.2
  1
54,18
  0
TEXT
  5
10134B
  8
PUNKTE_H
 10
8.179
 20
-9.581
 30
454.157
 40
0.2
  1
54,16
  0
TEXT
  5
10134C
  8
PUNKTE_H
 10
14.207
 20
-9.885
 30
454.195
 40
0.2
  1
54,19
  0
TEXT
  5
10134D
  8
PUNKTE_H
 10
18.888
 20
-10.262
 30
454.18
 40
0.2
  1
54,18
  0
TEXT
  5
10134E
  8
PUNKTE_H
 10
21.586
 20
-10.604
 30
454.455
 40
0.2
  1
54,45
  0
TEXT
  5
10134F
  8
PUNKTE_H
 10
22.534
 20
-14.232
 30
454.422
 40
0.2
  1
54,42
  0
TEXT
  5
101350
  8
PUNKTE_H
 10
24.729
 20
-16.411
 30
454.755
 40
0.2
  1
54,76
  0
TEXT
  5
101351
  8
PUNKTE_H
 10
20.717
 20
-16.696
 30
454.435
 40
0.2
  1
54,44
  0
TEXT
  5
101352
  8
PUNKTE_H
 10
15.888
 20
-16.223
 30
454.288
 40
0.2
  1
54,29
  0
TEXT
  5
101353
  8
PUNKTE_H
 10
10.618
 20
-15.301
 30
454.039
 40
0.2
  1
54,04
  0
TEXT
  5
101354
  8
PUNKTE_H
 10
5.144
 20
-14.339
 30
454.065
 40
0.2
  1
54,07
  0
TEXT
  5
101355
  8
PUNKTE_H
 10
0.705
 20
-14.048
 30
454.06
 40
0.2
  1
54,06
  0
TEXT
  5
101356
  8
PUNKTE_H
 10
-3.506
 20
-13.921
 30
453.974
 40
0.2
  1
53,97
  0
TEXT
  5
101357
  8
PUNKTE_H
 10
-4.794
 20
-10.729
 30
454.055
 40
0.2
  1
54,06
  0
TEXT
  5
101358
  8
PUNKTE_H
 10
-2.24
 20
-10.879
 30
454.055
 40
0.2
  1
54,06
  0
TEXT
  5
101359
  8
PUNKTE_H
 10
3.5
 20
-11.682
 30
454.109
 40
0.2
  1
54,11
  0
TEXT
  5
10135A
  8
PUNKTE_H
 10
8.709
 20
-12.065
 30
454.122
 40
0.2
  1
54,12
  0
TEXT
  5
10135B
  8
PUNKTE_H
 10
14.508
 20
-12.764
 30
454.152
 40
0.2
  1
54,15
  0
TEXT
  5
10135C
  8
PUNKTE_H
 10
19.59
 20
-13.465
 30
454.179
 40
0.2
  1
54,18
  0
TEXT
  5
10135D
  8
PUNKTE_H
 10
17.894
 20
-17.126
 30
454.13
 40
0.2
  1
54,13
  0
TEXT
  5
10135E
  8
PUNKTE_H
 10
12.012
 20
-16.808
 30
453.702
 40
0.2
  1
53,70
  0
TEXT
  5
10135F
  8
PUNKTE_H
 10
7.125
 20
-17.135
 30
453.193
 40
0.2
  1
53,19
  0
TEXT
  5
101360
  8
PUNKTE_H
 10
2.605
 20
-17.892
 30
452.477
 40
0.2
  1
52,48
  0
TEXT
  5
101361
  8
PUNKTE_H
 10
-2.095
 20
-18.221
 30
451.993
 40
0.2
  1
51,99
  0
TEXT
  5
101362
  8
PUNKTE_H
 10
-5.734
 20
-18.301
 30
451.77
 40
0.2
  1
51,77
  0
TEXT
  5
101363
  8
PUNKTE_H
 10
-5.411
 20
-14.596
 30
452.846
 40
0.2
  1
52,85
  0
TEXT
  5
101364
  8
PUNKTE_H
 10
-5.93
 20
-10.206
 30
453.471
 40
0.2
  1
53,47
  0
TEXT
  5
101365
  8
PUNKTE_H
 10
-8.238
 20
0.666
 30
455.155
 40
0.2
  1
55,15
  0
TEXT
  5
101366
  8
PUNKTE_H
 10
-8.306
 20
-2.609
 30
454.966
 40
0.2
  1
54,97
  0
TEXT
  5
101367
  8
PUNKTE_H
 10
-7.685
 20
-7.485
 30
453.985
 40
0.2
  1
53,99
  0
TEXT
  5
101368
  8
PUNKTE_H
 10
-7.705
 20
-11.292
 30
453.262
 40
0.2
  1
53,26
  0
TEXT
  5
101369
  8
PUNKTE_H
 10
-7.591
 20
-15.098
 30
452.69
 40
0.2
  1
52,69
  0
TEXT
  5
10136A
  8
PUNKTE_H
 10
-7.868
 20
-20.377
 30
451.2
 40
0.2
  1
51,20
  0
TEXT
  5
10136B
  8
PUNKTE_H
 10
-0.653
 20
-20.42
 30
451.653
 40
0.2
  1
51,65
  0
TEXT
  5
10136C
  8
PUNKTE_H
 10
4.888
 20
-20.445
 30
452.176
 40
0.2
  1
52,18
  0
TEXT
  5
10136D
  8
PUNKTE_H
 10
8.923
 20
-20.622
 30
452.826
 40
0.2
  1
52,83
  0
TEXT
  5
10136E
  8
PUNKTE_H
 10
13.614
 20
-20.356
 30
453.397
 40
0.2
  1
53,40
  0
TEXT
  5
10136F
  8
PUNKTE_H
 10
20.879
 20
-20.314
 30
454.04
 40
0.2
  1
54,04
  0
TEXT
  5
101370
  8
PUNKTE_H
 10
26.066
 20
-20.019
 30
454.519
 40
0.2
  1
54,52
  0
LINE
  5
101485
  8
PUNKTE_LI
  6
CONTINUOUS
 10
17.579
 20
7.714
 30
455.657
 11
16.69
 21
8.32
 31
455.715
  0
POINT
  5
9
  8
PUNKTE
 10
15.571
 20
-0.057
 30
455.586
  0
POINT
  5
10
  8
PUNKTE
 10
15.564
 20
5.482
 30
455.558
  0
POINT
  5
11
  8
PUNKTE
 10
15.609
 20
7.911
 30
455.558
  0
POINT
  5
12
  8
PUNKTE
 10
15.625
 20
8.215
 30
455.733
  0
POINT
  5
13
  8
PUNKTE
 10
16.69
 20
8.32
 30
455.715
  0
POINT
  5
14
  8
PUNKTE
 10
16.716
 20
10.782
 30
457.251
  0
POINT
  5
15
  8
PUNKTE
 10
18.437
 20
10.603
 30
457.251
  0
POINT
  5
16
  8
PUNKTE
 10
18.591
 20
6.652
 30
456.788
  0
POINT
  5
17
  8
PUNKTE
 10
19.499
 20
2.665
 30
456.447
  0
POINT
  5
18
  8
PUNKTE
 10
19.429
 20
1.059
 30
456.128
  0
POINT
  5
19
  8
PUNKTE
 10
19.203
 20
-0.606
 30
455.583
  0
POINT
  5
20
  8
PUNKTE
 10
18.623
 20
3.138
 30
455.596
  0
POINT
  5
21
  8
PUNKTE
 10
17.72
 20
6.689
 30
455.609
  0
POINT
  5
22
  8
PUNKTE
 10
17.579
 20
7.714
 30
455.657
  0
POINT
  5
23
  8
PUNKTE
 10
16.686
 20
11.866
 30
457.46
  0
POINT
  5
24
  8
PUNKTE
 10
14.101
 20
11.878
 30
457.672
  0
POINT
  5
25
  8
PUNKTE
 10
12.802
 20
11.825
 30
458.124
  0
POINT
  5
26
  8
GEBAEUDE
 10
12.905
 20
11.7
 30
458.597
  0
POINT
  5
27
  8
GEBAEUDE
 10
12.836
 20
11.799
 30
458.701
  0
POINT
  5
28
  8
GEBAEUDE
 10
14.048
 20
11.786
 30
458.701
  0
POINT
  5
29
  8
GEBAEUDE
 10
15.809
 20
11.825
 30
457.725
  0
POINT
  5
30
  8
GEBAEUDE
 10
16.605
 20
11.822
 30
457.723
  0
POINT
  5
31
  8
GEBAEUDE
 10
16.623
 20
10.744
 30
457.72
  0
POINT
  5
32
  8
GEBAEUDE
 10
16.622
 20
8.373
 30
456.421
  0
POINT
  5
33
  8
GEBAEUDE
 10
16.065
 20
8.444
 30
455.779
  0
POINT
  5
34
  8
GEBAEUDE
 10
15.435
 20
5.973
 30
455.916
  0
POINT
  5
35
  8
PUNKTE
 10
23.092
 20
-0.793
 30
455.977
  0
POINT
  5
36
  8
PUNKTE
 10
23.669
 20
-0.674
 30
456.377
  0
POINT
  5
37
  8
PUNKTE
 10
23.289
 20
5.934
 30
457.142
  0
POINT
  5
38
  8
PUNKTE
 10
22.85
 20
5.874
 30
456.841
  0
POINT
  5
39
  8
PUNKTE
 10
22.964
 20
12.069
 30
457.814
  0
POINT
  5
40
  8
PUNKTE
 10
22.37
 20
11.742
 30
457.488
  0
POINT
  5
41
  8
PUNKTE
 10
22.052
 20
14.004
 30
457.756
  0
POINT
  5
42
  8
PUNKTE
 10
19.84
 20
15.05
 30
457.836
  0
POINT
  5
43
  8
PUNKTE
 10
16.132
 20
14.473
 30
457.664
  0
POINT
  5
44
  8
PUNKTE
 10
13.959
 20
14.419
 30
457.744
  0
POINT
  5
45
  8
PUNKTE
 10
12.032
 20
14.519
 30
458.337
  0
POINT
  5
46
  8
PUNKTE
 10
12.266
 20
12.056
 30
458.279
  0
POINT
  5
47
  8
PUNKTE
 10
12.765
 20
10.77
 30
458.254
  0
POINT
  5
48
  8
PUNKTE
 10
9.009
 20
10.773
 30
458.228
  0
POINT
  5
49
  8
GEBAEUDE
 10
7.891
 20
10.26
 30
458.743
  0
POINT
  5
50
  8
PUNKTE
 10
9.011
 20
11.428
 30
458.339
  0
POINT
  5
51
  8
PUNKTE
 10
6.889
 20
11.409
 30
458.36
  0
POINT
  5
52
  8
PUNKTE
 10
6.871
 20
10.787
 30
458.332
  0
POINT
  5
53
  8
PUNKTE
 10
0.25
 20
10.74
 30
458.128
  0
POINT
  5
54
  8
GEBAEUDE
 10
-5.294
 20
8.589
 30
458.649
  0
POINT
  5
55
  8
PUNKTE
 10
-4.095
 20
8.918
 30
458.139
  0
POINT
  5
56
  8
PUNKTE
 10
-5.997
 20
8.905
 30
458.076
  0
POINT
  5
57
  8
GEBAEUDE
 10
-6.126
 20
8.879
 30
458.619
  0
POINT
  5
58
  8
PUNKTE
 10
-5.945
 20
10.552
 30
457.889
  0
POINT
  5
59
  8
PUNKTE
 10
-5.943
 20
12.092
 30
457.712
  0
POINT
  5
60
  8
PUNKTE
 10
-1.713
 20
11.842
 30
457.854
  0
POINT
  5
61
  8
PUNKTE
 10
-1.472
 20
10.597
 30
457.935
  0
POINT
  5
62
  8
EINBAUTEN
 10
-0.649
 20
12.0
 30
458.204
  0
POINT
  5
63
  8
PUNKTE
 10
-0.684
 20
12.542
 30
458.015
  0
POINT
  5
64
  8
PUNKTE
 10
-0.583
 20
13.694
 30
458.114
  0
POINT
  5
65
  8
PUNKTE
 10
5.185
 20
12.55
 30
458.247
  0
POINT
  5
66
  8
PUNKTE
 10
5.919
 20
14.313
 30
458.23
  0
POINT
  5
67
  8
PUNKTE
 10
8.953
 20
14.517
 30
458.289
  0
POINT
  5
70
  8
PUNKTE
 10
8.214
 20
15.138
 30
458.714
  0
POINT
  5
71
  8
PUNKTE
 10
10.616
 20
15.677
 30
458.911
  0
POINT
  5
72
  8
PUNKTE
 10
13.394
 20
16.558
 30
458.935
  0
POINT
  5
73
  8
PUNKTE
 10
17.315
 20
17.519
 30
459.177
  0
POINT
  5
74
  8
PUNKTE
 10
21.931
 20
18.259
 30
459.378
  0
POINT
  5
75
  8
PUNKTE
 10
22.799
 20
16.677
 30
458.481
  0
POINT
  5
76
  8
PUNKTE
 10
27.864
 20
21.974
 30
459.685
  0
POINT
  5
77
  8
PUNKTE
 10
27.871
 20
21.842
 30
459.704
  0
POINT
  5
78
  8
PUNKTE
 10
26.964
 20
21.768
 30
459.73
  0
POINT
  5
79
  8
PUNKTE
 10
26.929
 20
21.936
 30
459.692
  0
POINT
  5
80
  8
PUNKTE
 10
26.385
 20
21.854
 30
459.687
  0
POINT
  5
81
  8
PUNKTE
 10
26.41
 20
21.721
 30
459.717
  0
POINT
  5
82
  8
PUNKTE
 10
25.481
 20
21.611
 30
459.686
  0
POINT
  5
83
  8
PUNKTE
 10
25.498
 20
21.463
 30
459.799
  0
POINT
  5
84
  8
PUNKTE
 10
24.655
 20
21.158
 30
459.791
  0
POINT
  5
85
  8
PUNKTE
 10
24.612
 20
21.266
 30
459.685
  0
POINT
  5
86
  8
PUNKTE
 10
23.786
 20
20.851
 30
459.657
  0
POINT
  5
87
  8
PUNKTE
 10
23.85
 20
20.72
 30
459.765
  0
POINT
  5
88
  8
PUNKTE
 10
22.264
 20
19.809
 30
459.697
  0
POINT
  5
89
  8
PUNKTE
 10
22.191
 20
19.913
 30
459.581
  0
POINT
  5
90
  8
PUNKTE
 10
20.56
 20
18.925
 30
459.601
  0
POINT
  5
91
  8
PUNKTE
 10
20.501
 20
19.037
 30
459.488
  0
POINT
  5
92
  8
PUNKTE
 10
19.617
 20
18.689
 30
459.443
  0
POINT
  5
93
  8
PUNKTE
 10
19.682
 20
18.574
 30
459.552
  0
POINT
  5
94
  8
PUNKTE
 10
18.751
 20
18.309
 30
459.498
  0
POINT
  5
95
  8
PUNKTE
 10
18.744
 20
18.42
 30
459.374
  0
POINT
  5
96
  8
PUNKTE
 10
16.898
 20
17.976
 30
459.287
  0
POINT
  5
97
  8
PUNKTE
 10
16.937
 20
17.833
 30
459.402
  0
POINT
  5
98
  8
PUNKTE
 10
15.051
 20
17.401
 30
459.294
  0
POINT
  5
99
  8
PUNKTE
 10
15.009
 20
17.539
 30
459.177
  0
POINT
  5
100
  8
PUNKTE
 10
13.139
 20
17.178
 30
459.071
  0
POINT
  5
101
  8
PUNKTE
 10
13.196
 20
17.046
 30
459.19
  0
POINT
  5
102
  8
PUNKTE
 10
11.319
 20
16.636
 30
459.086
  0
POINT
  5
103
  8
PUNKTE
 10
11.296
 20
16.776
 30
458.955
  0
POINT
  5
104
  8
EINBAUTEN
 10
10.201
 20
16.588
 30
458.901
  0
POINT
  5
105
  8
PUNKTE
 10
10.245
 20
16.468
 30
459.023
  0
POINT
  5
106
  8
PUNKTE
 10
8.473
 20
16.13
 30
458.921
  0
POINT
  5
107
  8
PUNKTE
 10
8.448
 20
16.251
 30
458.793
  0
POINT
  5
108
  8
PUNKTE
 10
6.069
 20
15.826
 30
458.652
  0
POINT
  5
109
  8
PUNKTE
 10
6.101
 20
15.691
 30
458.771
  0
POINT
  5
110
  8
PUNKTE
 10
5.111
 20
15.553
 30
458.616
  0
POINT
  5
111
  8
PUNKTE
 10
5.071
 20
15.663
 30
458.582
  0
POINT
  5
112
  8
PUNKTE
 10
3.1
 20
15.349
 30
458.48
  0
POINT
  5
113
  8
PUNKTE
 10
3.115
 20
15.217
 30
458.524
  0
POINT
  5
114
  8
PUNKTE
 10
1.084
 20
14.916
 30
458.404
  0
POINT
  5
115
  8
PUNKTE
 10
1.088
 20
15.018
 30
458.378
  0
POINT
  5
116
  8
PUNKTE
 10
-0.92
 20
14.741
 30
458.276
  0
POINT
  5
117
  8
PUNKTE
 10
-0.918
 20
14.62
 30
458.303
  0
POINT
  5
118
  8
PUNKTE
 10
-2.899
 20
14.301
 30
458.195
  0
POINT
  5
119
  8
PUNKTE
 10
-2.939
 20
14.427
 30
458.163
  0
POINT
  5
120
  8
PUNKTE
 10
-5.975
 20
14.102
 30
458.026
  0
POINT
  5
121
  8
PUNKTE
 10
-5.957
 20
13.963
 30
458.051
  0
POINT
  5
123
  8
GEBAEUDE
 10
-6.03
 20
13.694
 30
458.079
  0
POINT
  5
124
  8
PUNKTE
 10
-7.926
 20
13.798
 30
457.951
  0
POINT
  5
125
  8
PUNKTE
 10
-7.973
 20
13.937
 30
457.923
  0
POINT
  5
126
  8
PUNKTE
 10
-12.463
 20
13.618
 30
457.727
  0
POINT
  5
127
  8
EINBAUTEN
 10
-14.687
 20
13.49
 30
457.642
  0
POINT
  5
128
  8
PUNKTE
 10
-15.036
 20
13.459
 30
457.635
  0
POINT
  5
129
  8
PUNKTE
 10
-15.093
 20
13.34
 30
457.649
  0
POINT
  5
130
  8
PUNKTE
 10
-16.77
 20
14.57
 30
457.709
  0
POINT
  5
131
  8
PUNKTE
 10
-16.704
 20
14.717
 30
457.604
  0
POINT
  5
136
  8
PUNKTE
 10
12.198
 20
21.847
 30
459.254
  0
POINT
  5
137
  8
PUNKTE
 10
18.143
 20
23.229
 30
459.633
  0
POINT
  5
139
  8
EINBAUTEN
 10
21.158
 20
20.084
 30
459.568
  0
POINT
  5
140
  8
EINBAUTEN
 10
16.566
 20
-4.316
 30
455.734
  0
POINT
  5
141
  8
GEBAEUDE
 10
15.512
 20
1.055
 30
455.922
  0
POINT
  5
142
  8
GEBAEUDE
 10
13.231
 20
-0.024
 30
455.917
  0
POINT
  5
143
  8
PUNKTE
 10
13.368
 20
-0.054
 30
455.531
  0
POINT
  5
144
  8
PUNKTE
 10
10.23
 20
-0.121
 30
455.462
  0
POINT
  5
145
  8
GEBAEUDE
 10
10.175
 20
-1.244
 30
455.788
  0
POINT
  5
146
  8
PUNKTE
 10
10.21
 20
-2.113
 30
455.559
  0
POINT
  5
147
  8
PUNKTE
 10
7.848
 20
-2.128
 30
455.553
  0
POINT
  5
148
  8
GEBAEUDE
 10
7.828
 20
-2.093
 30
455.779
  0
POINT
  5
149
  8
PUNKTE
 10
5.613
 20
-2.135
 30
455.498
  0
POINT
  5
150
  8
GEBAEUDE
 10
5.691
 20
-0.883
 30
455.793
  0
POINT
  5
151
  8
GEBAEUDE
 10
6.889
 20
-1.365
 30
455.942
  0
POINT
  5
152
  8
PUNKTE
 10
5.489
 20
-0.655
 30
455.52
  0
POINT
  5
153
  8
PUNKTE
 10
5.752
 20
-0.126
 30
455.52
  0
POINT
  5
154
  8
GEBAEUDE
 10
3.078
 20
-0.026
 30
455.925
  0
POINT
  5
155
  8
PUNKTE
 10
3.236
 20
-0.113
 30
455.479
  0
POINT
  5
156
  8
PUNKTE
 10
0.269
 20
-0.116
 30
455.378
  0
POINT
  5
157
  8
PUNKTE
 10
-4.689
 20
1.713
 30
455.555
  0
POINT
  5
158
  8
GEBAEUDE
 10
-4.652
 20
1.807
 30
455.907
  0
POINT
  5
159
  8
GEBAEUDE
 10
-6.026
 20
1.737
 30
455.781
  0
POINT
  5
160
  8
PUNKTE
 10
-5.922
 20
1.734
 30
455.571
  0
POINT
  5
161
  8
PUNKTE
 10
-5.924
 20
0.674
 30
455.552
  0
POINT
  5
162
  8
PUNKTE
 10
-2.051
 20
-0.209
 30
455.401
  0
POINT
  5
163
  8
PUNKTE
 10
-1.088
 20
-2.652
 30
455.155
  0
POINT
  5
164
  8
EINBAUTEN
 10
-0.734
 20
-2.877
 30
455.326
  0
POINT
  5
165
  8
PUNKTE
 10
1.774
 20
-2.648
 30
455.456
  0
POINT
  5
166
  8
PUNKTE
 10
4.942
 20
-3.715
 30
455.456
  0
POINT
  5
167
  8
PUNKTE
 10
10.65
 20
-3.897
 30
455.412
  0
POINT
  5
168
  8
PUNKTE
 10
12.714
 20
-2.273
 30
455.417
  0
POINT
  5
169
  8
PUNKTE
 10
16.651
 20
-1.994
 30
455.449
  0
POINT
  5
171
  8
PUNKTE
 10
23.092
 20
-2.044
 30
455.803
  0
POINT
  5
172
  8
PUNKTE
 10
23.74
 20
-2.386
 30
456.158
  0
POINT
  5
173
  8
PUNKTE
 10
23.881
 20
-5.116
 30
455.935
  0
POINT
  5
174
  8
PUNKTE
 10
23.108
 20
-5.03
 30
455.61
  0
POINT
  5
175
  8
PUNKTE
 10
24.173
 20
-9.821
 30
455.466
  0
POINT
  5
176
  8
PUNKTE
 10
22.956
 20
-9.534
 30
455.455
  0
POINT
  5
177
  8
PUNKTE
 10
18.718
 20
-9.371
 30
455.345
  0
POINT
  5
178
  8
PUNKTE
 10
13.278
 20
-8.887
 30
455.339
  0
POINT
  5
179
  8
PUNKTE
 10
8.764
 20
-8.679
 30
455.402
  0
POINT
  5
180
  8
PUNKTE
 10
8.377
 20
-7.74
 30
455.406
  0
POINT
  5
181
  8
PUNKTE
 10
4.799
 20
-7.136
 30
455.399
  0
POINT
  5
182
  8
PUNKTE
 10
2.044
 20
-7.173
 30
455.4
  0
POINT
  5
183
  8
PUNKTE
 10
1.369
 20
-7.205
 30
455.259
  0
POINT
  5
184
  8
PUNKTE
 10
0.955
 20
-6.503
 30
455.163
  0
POINT
  5
185
  8
PUNKTE
 10
-1.056
 20
-6.346
 30
455.088
  0
POINT
  5
186
  8
PUNKTE
 10
-2.236
 20
-6.393
 30
455.13
  0
POINT
  5
187
  8
PUNKTE
 10
-5.004
 20
-4.976
 30
454.91
  0
POINT
  5
188
  8
PUNKTE
 10
-6.085
 20
-4.334
 30
454.646
  0
POINT
  5
189
  8
PUNKTE
 10
-6.075
 20
-2.708
 30
455.011
  0
POINT
  5
190
  8
PUNKTE
 10
-5.924
 20
-2.715
 30
455.117
  0
POINT
  5
191
  8
GEBAEUDE
 10
-6.024
 20
-2.634
 30
455.663
  0
POINT
  5
192
  8
PUNKTE
 10
-6.05
 20
-5.454
 30
454.258
  0
POINT
  5
193
  8
PUNKTE
 10
-3.854
 20
-6.855
 30
454.185
  0
POINT
  5
194
  8
PUNKTE
 10
-1.098
 20
-7.626
 30
454.168
  0
POINT
  5
195
  8
PUNKTE
 10
-1.537
 20
-9.192
 30
454.079
  0
POINT
  5
196
  8
PUNKTE
 10
-0.171
 20
-10.081
 30
454.104
  0
POINT
  5
197
  8
PUNKTE
 10
1.115
 20
-10.195
 30
454.099
  0
POINT
  5
198
  8
PUNKTE
 10
1.473
 20
-9.36
 30
454.041
  0
POINT
  5
199
  8
PUNKTE
 10
1.26
 20
-7.891
 30
454.092
  0
POINT
  5
200
  8
EINBAUTEN
 10
0.328
 20
-9.056
 30
453.726
  0
POINT
  5
201
  8
EINBAUTEN
 10
7.374
 20
-9.896
 30
454.047
  0
POINT
  5
202
  8
PUNKTE
 10
3.644
 20
-7.808
 30
454.174
  0
POINT
  5
203
  8
PUNKTE
 10
7.935
 20
-8.21
 30
454.18
  0
POINT
  5
204
  8
PUNKTE
 10
7.979
 20
-9.281
 30
454.157
  0
POINT
  5
205
  8
PUNKTE
 10
14.007
 20
-9.585
 30
454.195
  0
POINT
  5
206
  8
PUNKTE
 10
18.688
 20
-9.962
 30
454.18
  0
POINT
  5
207
  8
PUNKTE
 10
22.762
 20
-10.248
 30
454.455
  0
POINT
  5
208
  8
PUNKTE
 10
22.334
 20
-13.932
 30
454.422
  0
POINT
  5
209
  8
PUNKTE
 10
24.529
 20
-16.111
 30
454.755
  0
POINT
  5
210
  8
PUNKTE
 10
20.517
 20
-16.396
 30
454.435
  0
POINT
  5
211
  8
PUNKTE
 10
15.688
 20
-15.923
 30
454.288
  0
POINT
  5
212
  8
PUNKTE
 10
10.418
 20
-15.001
 30
454.039
  0
POINT
  5
213
  8
PUNKTE
 10
4.944
 20
-14.039
 30
454.065
  0
POINT
  5
214
  8
PUNKTE
 10
0.505
 20
-13.748
 30
454.06
  0
POINT
  5
215
  8
PUNKTE
 10
-3.706
 20
-13.621
 30
453.974
  0
POINT
  5
216
  8
PUNKTE
 10
-4.994
 20
-10.429
 30
454.055
  0
POINT
  5
217
  8
PUNKTE
 10
-2.44
 20
-10.579
 30
454.055
  0
POINT
  5
218
  8
PUNKTE
 10
3.3
 20
-11.382
 30
454.109
  0
POINT
  5
219
  8
PUNKTE
 10
8.509
 20
-11.765
 30
454.122
  0
POINT
  5
220
  8
PUNKTE
 10
14.308
 20
-12.464
 30
454.152
  0
POINT
  5
221
  8
PUNKTE
 10
19.39
 20
-13.165
 30
454.179
  0
POINT
  5
222
  8
PUNKTE
 10
17.694
 20
-16.826
 30
454.13
  0
POINT
  5
223
  8
PUNKTE
 10
11.812
 20
-16.508
 30
453.702
  0
POINT
  5
224
  8
PUNKTE
 10
6.925
 20
-16.835
 30
453.193
  0
POINT
  5
225
  8
PUNKTE
 10
2.405
 20
-17.592
 30
452.477
  0
POINT
  5
226
  8
PUNKTE
 10
-2.295
 20
-17.921
 30
451.993
  0
POINT
  5
227
  8
PUNKTE
 10
-5.934
 20
-18.001
 30
451.77
  0
POINT
  5
228
  8
PUNKTE
 10
-5.611
 20
-14.296
 30
452.846
  0
POINT
  5
229
  8
PUNKTE
 10
-6.096
 20
-10.35
 30
453.471
  0
POINT
  5
230
  8
PUNKTE
 10
-8.438
 20
0.966
 30
455.155
  0
POINT
  5
231
  8
PUNKTE
 10
-8.506
 20
-2.309
 30
454.966
  0
POINT
  5
232
  8
PUNKTE
 10
-7.885
 20
-7.185
 30
453.985
  0
POINT
  5
233
  8
PUNKTE
 10
-7.905
 20
-10.992
 30
453.262
  0
POINT
  5
234
  8
PUNKTE
 10
-7.791
 20
-14.798
 30
452.69
  0
POINT
  5
235
  8
PUNKTE
 10
-8.068
 20
-20.077
 30
451.2
  0
POINT
  5
236
  8
PUNKTE
 10
-0.853
 20
-20.12
 30
451.653
  0
POINT
  5
237
  8
PUNKTE
 10
4.688
 20
-20.145
 30
452.176
  0
POINT
  5
238
  8
PUNKTE
 10
8.723
 20
-20.322
 30
452.826
  0
POINT
  5
239
  8
PUNKTE
 10
13.414
 20
-20.056
 30
453.397
  0
POINT
  5
240
  8
PUNKTE
 10
20.679
 20
-20.014
 30
454.04
  0
POINT
  5
241
  8
PUNKTE
 10
25.866
 20
-19.719
 30
454.519
  0
LINE
  5
1020B3
  8
HOEHENLINIEN
 10
-1.06
 20
-6.468
 30
455.0
 11
-2.082
 21
-6.56
 31
455.0
  0
LINE
  5
1020B4
  8
HOEHENLINIEN
 10
-1.069
 20
-6.747
 30
454.8
 11
-1.846
 21
-6.816
 31
454.8
  0
LINE
  5
1020B5
  8
HOEHENLINIEN
 10
-1.078
 20
-7.025
 30
454.6
 11
-1.609
 21
-7.072
 31
454.6
  0
LINE
  5
1020B6
  8
HOEHENLINIEN
 10
-1.087
 20
-7.303
 30
454.4
 11
-1.372
 21
-7.329
 31
454.4
  0
LINE
  5
1020B7
  8
HOEHENLINIEN
 10
-1.097
 20
-7.581
 30
454.2
 11
-1.136
 21
-7.585
 31
454.2
  0
LINE
  5
1020B8
  8
HOEHENLINIEN
 10
8.763
 20
-8.678
 30
455.4
 11
8.763
 21
-8.68
 31
455.4
  0
LINE
  5
1020B9
  8
HOEHENLINIEN
 10
8.627
 20
-8.601
 30
455.2
 11
8.637
 21
-8.777
 31
455.2
  0
LINE
  5
1020BA
  8
HOEHENLINIEN
 10
8.491
 20
-8.525
 30
455.0
 11
8.511
 21
-8.873
 31
455.0
  0
LINE
  5
1020BB
  8
HOEHENLINIEN
 10
8.356
 20
-8.448
 30
454.8
 11
8.384
 21
-8.97
 31
454.8
  0
LINE
  5
1020BC
  8
HOEHENLINIEN
 10
8.22
 20
-8.371
 30
454.6
 11
8.258
 21
-9.067
 31
454.6
  0
LINE
  5
1020BD
  8
HOEHENLINIEN
 10
8.084
 20
-8.294
 30
454.4
 11
8.132
 21
-9.163
 31
454.4
  0
LINE
  5
1020BE
  8
HOEHENLINIEN
 10
7.949
 20
-8.218
 30
454.2
 11
8.006
 21
-9.26
 31
454.2
  0
LINE
  5
1020BF
  8
HOEHENLINIEN
 10
5.311
 20
-7.311
 30
455.2
 11
4.611
 21
-7.245
 31
455.2
  0
LINE
  5
1020C0
  8
HOEHENLINIEN
 10
5.825
 20
-7.487
 30
455.0
 11
4.423
 21
-7.355
 31
455.0
  0
LINE
  5
1020C1
  8
HOEHENLINIEN
 10
6.34
 20
-7.664
 30
454.8
 11
4.234
 21
-7.465
 31
454.8
  0
LINE
  5
1020C2
  8
HOEHENLINIEN
 10
6.854
 20
-7.84
 30
454.6
 11
4.046
 21
-7.574
 31
454.6
  0
LINE
  5
1020C3
  8
HOEHENLINIEN
 10
7.369
 20
-8.016
 30
454.4
 11
3.857
 21
-7.684
 31
454.4
  0
LINE
  5
1020C4
  8
HOEHENLINIEN
 10
7.883
 20
-8.192
 30
454.2
 11
3.669
 21
-7.794
 31
454.2
  0
LINE
  5
1020C5
  8
HOEHENLINIEN
 10
1.493
 20
-7.238
 30
455.2
 11
4.611
 21
-7.245
 31
455.2
  0
LINE
  5
1020C6
  8
HOEHENLINIEN
 10
1.912
 20
-7.349
 30
455.0
 11
4.423
 21
-7.355
 31
455.0
  0
LINE
  5
1020C7
  8
HOEHENLINIEN
 10
2.331
 20
-7.46
 30
454.8
 11
4.234
 21
-7.465
 31
454.8
  0
LINE
  5
1020C8
  8
HOEHENLINIEN
 10
2.751
 20
-7.571
 30
454.6
 11
4.046
 21
-7.574
 31
454.6
  0
LINE
  5
1020C9
  8
HOEHENLINIEN
 10
3.17
 20
-7.682
 30
454.4
 11
3.857
 21
-7.684
 31
454.4
  0
LINE
  5
1020CA
  8
HOEHENLINIEN
 10
3.589
 20
-7.794
 30
454.2
 11
3.669
 21
-7.794
 31
454.2
  0
LINE
  5
1020CB
  8
HOEHENLINIEN
 10
1.493
 20
-7.238
 30
455.2
 11
1.363
 21
-7.24
 31
455.2
  0
LINE
  5
1020CC
  8
HOEHENLINIEN
 10
1.912
 20
-7.349
 30
455.0
 11
1.345
 21
-7.357
 31
455.0
  0
LINE
  5
1020CD
  8
HOEHENLINIEN
 10
2.331
 20
-7.46
 30
454.8
 11
1.326
 21
-7.475
 31
454.8
  0
LINE
  5
1020CE
  8
HOEHENLINIEN
 10
2.751
 20
-7.571
 30
454.6
 11
1.307
 21
-7.592
 31
454.6
  0
LINE
  5
1020CF
  8
HOEHENLINIEN
 10
3.17
 20
-7.682
 30
454.4
 11
1.289
 21
-7.71
 31
454.4
  0
LINE
  5
1020D0
  8
HOEHENLINIEN
 10
3.589
 20
-7.794
 30
454.2
 11
1.27
 21
-7.828
 31
454.2
  0
LINE
  5
1020D1
  8
HOEHENLINIEN
 10
8.772
 20
-8.68
 30
455.4
 11
8.763
 21
-8.68
 31
455.4
  0
LINE
  5
1020D2
  8
HOEHENLINIEN
 10
9.641
 20
-8.831
 30
455.2
 11
8.637
 21
-8.777
 31
455.2
  0
LINE
  5
1020D3
  8
HOEHENLINIEN
 10
10.51
 20
-8.981
 30
455.0
 11
8.511
 21
-8.873
 31
455.0
  0
LINE
  5
1020D4
  8
HOEHENLINIEN
 10
11.379
 20
-9.131
 30
454.8
 11
8.384
 21
-8.97
 31
454.8
  0
LINE
  5
1020D5
  8
HOEHENLINIEN
 10
12.248
 20
-9.281
 30
454.6
 11
8.258
 21
-9.067
 31
454.6
  0
LINE
  5
1020D6
  8
HOEHENLINIEN
 10
13.116
 20
-9.431
 30
454.4
 11
8.132
 21
-9.163
 31
454.4
  0
LINE
  5
1020D7
  8
HOEHENLINIEN
 10
13.985
 20
-9.581
 30
454.2
 11
8.006
 21
-9.26
 31
454.2
  0
LINE
  5
1020D8
  8
HOEHENLINIEN
 10
8.902
 20
-8.685
 30
455.4
 11
8.772
 21
-8.68
 31
455.4
  0
LINE
  5
1020D9
  8
HOEHENLINIEN
 10
13.367
 20
-8.972
 30
455.2
 11
9.641
 21
-8.831
 31
455.2
  0
LINE
  5
1020DA
  8
HOEHENLINIEN
 10
13.494
 20
-9.094
 30
455.0
 11
10.51
 21
-8.981
 31
455.0
  0
LINE
  5
1020DB
  8
HOEHENLINIEN
 10
13.621
 20
-9.216
 30
454.8
 11
11.379
 21
-9.131
 31
454.8
  0
LINE
  5
1020DC
  8
HOEHENLINIEN
 10
13.749
 20
-9.338
 30
454.6
 11
12.248
 21
-9.281
 31
454.6
  0
LINE
  5
1020DD
  8
HOEHENLINIEN
 10
13.876
 20
-9.46
 30
454.4
 11
13.116
 21
-9.431
 31
454.4
  0
LINE
  5
1020DE
  8
HOEHENLINIEN
 10
14.004
 20
-9.582
 30
454.2
 11
13.985
 21
-9.581
 31
454.2
  0
LINE
  5
1020DF
  8
HOEHENLINIEN
 10
8.908
 20
-8.686
 30
455.4
 11
8.817
 21
-7.843
 31
455.4
  0
LINE
  5
1020E0
  8
HOEHENLINIEN
 10
8.763
 20
-8.678
 30
455.4
 11
8.375
 21
-7.742
 31
455.4
  0
LINE
  5
1020E1
  8
HOEHENLINIEN
 10
8.627
 20
-8.601
 30
455.2
 11
8.303
 21
-7.819
 31
455.2
  0
LINE
  5
1020E2
  8
HOEHENLINIEN
 10
8.491
 20
-8.525
 30
455.0
 11
8.231
 21
-7.896
 31
455.0
  0
LINE
  5
1020E3
  8
HOEHENLINIEN
 10
8.356
 20
-8.448
 30
454.8
 11
8.159
 21
-7.972
 31
454.8
  0
LINE
  5
1020E4
  8
HOEHENLINIEN
 10
8.22
 20
-8.371
 30
454.6
 11
8.086
 21
-8.049
 31
454.6
  0
LINE
  5
1020E5
  8
HOEHENLINIEN
 10
8.084
 20
-8.294
 30
454.4
 11
8.014
 21
-8.126
 31
454.4
  0
LINE
  5
1020E6
  8
HOEHENLINIEN
 10
7.949
 20
-8.218
 30
454.2
 11
7.942
 21
-8.202
 31
454.2
  0
LINE
  5
1020E7
  8
HOEHENLINIEN
 10
5.359
 20
-7.231
 30
455.4
 11
8.375
 21
-7.742
 31
455.4
  0
LINE
  5
1020E8
  8
HOEHENLINIEN
 10
5.311
 20
-7.311
 30
455.2
 11
8.303
 21
-7.819
 31
455.2
  0
LINE
  5
1020E9
  8
HOEHENLINIEN
 10
5.825
 20
-7.487
 30
455.0
 11
8.231
 21
-7.896
 31
455.0
  0
LINE
  5
1020EA
  8
HOEHENLINIEN
 10
6.34
 20
-7.664
 30
454.8
 11
8.159
 21
-7.972
 31
454.8
  0
LINE
  5
1020EB
  8
HOEHENLINIEN
 10
6.854
 20
-7.84
 30
454.6
 11
8.086
 21
-8.049
 31
454.6
  0
LINE
  5
1020EC
  8
HOEHENLINIEN
 10
7.369
 20
-8.016
 30
454.4
 11
8.014
 21
-8.126
 31
454.4
  0
LINE
  5
1020ED
  8
HOEHENLINIEN
 10
7.883
 20
-8.192
 30
454.2
 11
7.942
 21
-8.202
 31
454.2
  0
LINE
  5
1020EE
  8
HOEHENLINIEN
 10
5.312
 20
-7.223
 30
455.4
 11
4.802
 21
-7.076
 31
455.4
  0
LINE
  5
1020EF
  8
HOEHENLINIEN
 10
2.044
 20
-7.173
 30
455.4
 11
4.802
 21
-7.076
 31
455.4
  0
LINE
  5
1020F0
  8
HOEHENLINIEN
 10
1.115
 20
-6.774
 30
455.2
 11
1.125
 21
-6.608
 31
455.2
  0
LINE
  5
1020F1
  8
HOEHENLINIEN
 10
1.115
 20
-6.774
 30
455.2
 11
1.363
 21
-7.24
 31
455.2
  0
LINE
  5
1020F2
  8
HOEHENLINIEN
 10
1.001
 20
-6.714
 30
455.0
 11
1.345
 21
-7.357
 31
455.0
  0
LINE
  5
1020F3
  8
HOEHENLINIEN
 10
1.058
 20
-6.973
 30
454.8
 11
1.326
 21
-7.475
 31
454.8
  0
LINE
  5
1020F4
  8
HOEHENLINIEN
 10
1.115
 20
-7.233
 30
454.6
 11
1.307
 21
-7.592
 31
454.6
  0
LINE
  5
1020F5
  8
HOEHENLINIEN
 10
1.172
 20
-7.492
 30
454.4
 11
1.289
 21
-7.71
 31
454.4
  0
LINE
  5
1020F6
  8
HOEHENLINIEN
 10
1.229
 20
-7.751
 30
454.2
 11
1.27
 21
-7.828
 31
454.2
  0
LINE
  5
1020F7
  8
HOEHENLINIEN
 10
0.619
 20
-6.687
 30
455.0
 11
1.001
 21
-6.714
 31
455.0
  0
LINE
  5
1020F8
  8
HOEHENLINIEN
 10
0.206
 20
-6.913
 30
454.8
 11
1.058
 21
-6.973
 31
454.8
  0
LINE
  5
1020F9
  8
HOEHENLINIEN
 10
-0.207
 20
-7.138
 30
454.6
 11
1.115
 21
-7.233
 31
454.6
  0
LINE
  5
1020FA
  8
HOEHENLINIEN
 10
-0.619
 20
-7.364
 30
454.4
 11
1.172
 21
-7.492
 31
454.4
  0
LINE
  5
1020FB
  8
HOEHENLINIEN
 10
-1.032
 20
-7.59
 30
454.2
 11
1.229
 21
-7.751
 31
454.2
  0
LINE
  5
1020FC
  8
HOEHENLINIEN
 10
-1.06
 20
-6.468
 30
455.0
 11
0.619
 21
-6.687
 31
455.0
  0
LINE
  5
1020FD
  8
HOEHENLINIEN
 10
-1.069
 20
-6.747
 30
454.8
 11
0.206
 21
-6.913
 31
454.8
  0
LINE
  5
1020FE
  8
HOEHENLINIEN
 10
-1.078
 20
-7.025
 30
454.6
 11
-0.207
 21
-7.138
 31
454.6
  0
LINE
  5
1020FF
  8
HOEHENLINIEN
 10
-1.087
 20
-7.303
 30
454.4
 11
-0.619
 21
-7.364
 31
454.4
  0
LINE
  5
102100
  8
HOEHENLINIEN
 10
-1.097
 20
-7.581
 30
454.2
 11
-1.032
 21
-7.59
 31
454.2
  0
LINE
  5
102101
  8
HOEHENLINIEN
 10
-3.871
 20
-5.556
 30
455.0
 11
-2.458
 21
-6.457
 31
455.0
  0
LINE
  5
102102
  8
HOEHENLINIEN
 10
-4.83
 20
-5.261
 30
454.8
 11
-2.801
 21
-6.554
 31
454.8
  0
LINE
  5
102103
  8
HOEHENLINIEN
 10
-4.512
 20
-5.779
 30
454.6
 11
-3.143
 21
-6.652
 31
454.6
  0
LINE
  5
102104
  8
HOEHENLINIEN
 10
-4.195
 20
-6.298
 30
454.4
 11
-3.486
 21
-6.75
 31
454.4
  0
LINE
  5
102105
  8
HOEHENLINIEN
 10
-3.878
 20
-6.816
 30
454.2
 11
-3.828
 21
-6.848
 31
454.2
  0
LINE
  5
102106
  8
HOEHENLINIEN
 10
-2.458
 20
-6.457
 30
455.0
 11
-2.082
 21
-6.56
 31
455.0
  0
LINE
  5
102107
  8
HOEHENLINIEN
 10
-2.801
 20
-6.554
 30
454.8
 11
-1.846
 21
-6.816
 31
454.8
  0
LINE
  5
102108
  8
HOEHENLINIEN
 10
-3.143
 20
-6.652
 30
454.6
 11
-1.609
 21
-7.072
 31
454.6
  0
LINE
  5
102109
  8
HOEHENLINIEN
 10
-3.486
 20
-6.75
 30
454.4
 11
-1.372
 21
-7.329
 31
454.4
  0
LINE
  5
10210A
  8
HOEHENLINIEN
 10
-3.828
 20
-6.848
 30
454.2
 11
-1.136
 21
-7.585
 31
454.2
  0
LINE
  5
10210B
  8
HOEHENLINIEN
 10
12.516
 20
12.405
 30
458.2
 11
12.477
 21
14.496
 31
458.2
  0
LINE
  5
10210C
  8
HOEHENLINIEN
 10
13.149
 20
13.288
 30
458.0
 11
13.127
 21
14.462
 31
458.0
  0
LINE
  5
10210D
  8
HOEHENLINIEN
 10
13.782
 20
14.172
 30
457.8
 11
13.777
 21
14.428
 31
457.8
  0
LINE
  5
10210E
  8
HOEHENLINIEN
 10
18.379
 20
10.527
 30
457.2
 11
18.41
 21
10.511
 31
457.2
  0
LINE
  5
10210F
  8
HOEHENLINIEN
 10
18.152
 20
10.23
 30
457.0
 11
18.302
 21
10.148
 31
457.0
  0
LINE
  5
102110
  8
HOEHENLINIEN
 10
17.924
 20
9.933
 30
456.8
 11
18.194
 21
9.786
 31
456.8
  0
LINE
  5
102111
  8
HOEHENLINIEN
 10
17.697
 20
9.635
 30
456.6
 11
18.087
 21
9.423
 31
456.6
  0
LINE
  5
102112
  8
HOEHENLINIEN
 10
17.469
 20
9.338
 30
456.4
 11
17.979
 21
9.061
 31
456.4
  0
LINE
  5
102113
  8
HOEHENLINIEN
 10
17.242
 20
9.041
 30
456.2
 11
17.871
 21
8.698
 31
456.2
  0
LINE
  5
102114
  8
HOEHENLINIEN
 10
17.014
 20
8.744
 30
456.0
 11
17.764
 21
8.336
 31
456.0
  0
LINE
  5
102115
  8
HOEHENLINIEN
 10
16.787
 20
8.446
 30
455.8
 11
17.656
 21
7.973
 31
455.8
  0
LINE
  5
102116
  8
HOEHENLINIEN
 10
18.454
 20
10.169
 30
457.2
 11
18.41
 21
10.511
 31
457.2
  0
LINE
  5
102117
  8
HOEHENLINIEN
 10
18.52
 20
8.462
 30
457.0
 11
18.302
 21
10.148
 31
457.0
  0
LINE
  5
102118
  8
HOEHENLINIEN
 10
18.587
 20
6.755
 30
456.8
 11
18.194
 21
9.786
 31
456.8
  0
LINE
  5
102119
  8
HOEHENLINIEN
 10
18.423
 20
6.828
 30
456.6
 11
18.087
 21
9.423
 31
456.6
  0
LINE
  5
10211A
  8
HOEHENLINIEN
 10
18.244
 20
7.016
 30
456.4
 11
17.979
 21
9.061
 31
456.4
  0
LINE
  5
10211B
  8
HOEHENLINIEN
 10
18.065
 20
7.204
 30
456.2
 11
17.871
 21
8.698
 31
456.2
  0
LINE
  5
10211C
  8
HOEHENLINIEN
 10
17.886
 20
7.392
 30
456.0
 11
17.764
 21
8.336
 31
456.0
  0
LINE
  5
10211D
  8
HOEHENLINIEN
 10
17.707
 20
7.58
 30
455.8
 11
17.656
 21
7.973
 31
455.8
  0
LINE
  5
10211E
  8
HOEHENLINIEN
 10
18.423
 20
6.828
 30
456.6
 11
18.452
 21
6.658
 31
456.6
  0
LINE
  5
10211F
  8
HOEHENLINIEN
 10
18.244
 20
7.016
 30
456.4
 11
18.304
 21
6.664
 31
456.4
  0
LINE
  5
102120
  8
HOEHENLINIEN
 10
18.065
 20
7.204
 30
456.2
 11
18.157
 21
6.67
 31
456.2
  0
LINE
  5
102121
  8
HOEHENLINIEN
 10
17.886
 20
7.392
 30
456.0
 11
18.009
 21
6.677
 31
456.0
  0
LINE
  5
102122
  8
HOEHENLINIEN
 10
17.707
 20
7.58
 30
455.8
 11
17.861
 21
6.683
 31
455.8
  0
LINE
  5
102123
  8
HOEHENLINIEN
 10
18.452
 20
6.658
 30
456.6
 11
18.596
 21
6.098
 31
456.6
  0
LINE
  5
102124
  8
HOEHENLINIEN
 10
18.304
 20
6.664
 30
456.4
 11
18.601
 21
5.508
 31
456.4
  0
LINE
  5
102125
  8
HOEHENLINIEN
 10
18.157
 20
6.67
 30
456.2
 11
18.607
 21
4.919
 31
456.2
  0
LINE
  5
102126
  8
HOEHENLINIEN
 10
18.009
 20
6.677
 30
456.0
 11
18.612
 21
4.329
 31
456.0
  0
LINE
  5
102127
  8
HOEHENLINIEN
 10
17.861
 20
6.683
 30
455.8
 11
18.618
 21
3.739
 31
455.8
  0
LINE
  5
102128
  8
HOEHENLINIEN
 10
18.345
 20
4.23
 30
455.6
 11
18.623
 21
3.15
 31
455.6
  0
LINE
  5
102129
  8
HOEHENLINIEN
 10
19.091
 20
4.455
 30
456.6
 11
18.596
 21
6.098
 31
456.6
  0
LINE
  5
10212A
  8
HOEHENLINIEN
 10
19.451
 20
2.691
 30
456.4
 11
18.601
 21
5.508
 31
456.4
  0
LINE
  5
10212B
  8
HOEHENLINIEN
 10
19.245
 20
2.802
 30
456.2
 11
18.607
 21
4.919
 31
456.2
  0
LINE
  5
10212C
  8
HOEHENLINIEN
 10
19.039
 20
2.913
 30
456.0
 11
18.612
 21
4.329
 31
456.0
  0
LINE
  5
10212D
  8
HOEHENLINIEN
 10
18.833
 20
3.025
 30
455.8
 11
18.618
 21
3.739
 31
455.8
  0
LINE
  5
10212E
  8
HOEHENLINIEN
 10
18.627
 20
3.136
 30
455.6
 11
18.623
 21
3.15
 31
455.6
  0
LINE
  5
10212F
  8
HOEHENLINIEN
 10
19.489
 20
2.429
 30
456.4
 11
19.451
 21
2.691
 31
456.4
  0
LINE
  5
102130
  8
HOEHENLINIEN
 10
19.445
 20
1.422
 30
456.2
 11
19.245
 21
2.802
 31
456.2
  0
LINE
  5
102131
  8
HOEHENLINIEN
 10
19.235
 20
1.559
 30
456.0
 11
19.039
 21
2.913
 31
456.0
  0
LINE
  5
102132
  8
HOEHENLINIEN
 10
18.932
 20
2.341
 30
455.8
 11
18.833
 21
3.025
 31
455.8
  0
LINE
  5
102133
  8
HOEHENLINIEN
 10
18.629
 20
3.122
 30
455.6
 11
18.627
 21
3.136
 31
455.6
  0
LINE
  5
102134
  8
HOEHENLINIEN
 10
19.235
 20
1.559
 30
456.0
 11
19.376
 21
0.668
 31
456.0
  0
LINE
  5
102135
  8
HOEHENLINIEN
 10
18.932
 20
2.341
 30
455.8
 11
19.293
 21
0.057
 31
455.8
  0
LINE
  5
102136
  8
HOEHENLINIEN
 10
18.629
 20
3.122
 30
455.6
 11
19.21
 21
-0.554
 31
455.6
  0
LINE
  5
102137
  8
HOEHENLINIEN
 10
-4.12
 20
-12.594
 30
454.0
 11
-5.022
 21
-10.605
 31
454.0
  0
LINE
  5
102138
  8
HOEHENLINIEN
 10
-4.0
 20
-13.725
 30
453.8
 11
-5.124
 21
-11.244
 31
453.8
  0
LINE
  5
102139
  8
HOEHENLINIEN
 10
-4.338
 20
-13.845
 30
453.6
 11
-5.226
 21
-11.884
 31
453.6
  0
LINE
  5
10213A
  8
HOEHENLINIEN
 10
-4.675
 20
-13.964
 30
453.4
 11
-5.328
 21
-12.524
 31
453.4
  0
LINE
  5
10213B
  8
HOEHENLINIEN
 10
-5.013
 20
-14.084
 30
453.2
 11
-5.43
 21
-13.164
 31
453.2
  0
LINE
  5
10213C
  8
HOEHENLINIEN
 10
-5.351
 20
-14.204
 30
453.0
 11
-5.532
 21
-13.803
 31
453.0
  0
LINE
  5
10213D
  8
HOEHENLINIEN
 10
-4.119
 20
-12.596
 30
454.0
 11
-3.3
 21
-12.644
 31
454.0
  0
LINE
  5
10213E
  8
HOEHENLINIEN
 10
-3.3
 20
-12.644
 30
454.0
 11
-2.433
 21
-13.659
 31
454.0
  0
LINE
  5
10213F
  8
HOEHENLINIEN
 10
14.795
 20
-13.685
 30
454.2
 11
13.826
 21
-15.597
 31
454.2
  0
LINE
  5
102140
  8
HOEHENLINIEN
 10
18.676
 20
-13.697
 30
454.2
 11
14.795
 21
-13.685
 31
454.2
  0
LINE
  5
102141
  8
HOEHENLINIEN
 10
18.124
 20
-9.398
 30
455.2
 11
18.714
 21
-9.445
 31
455.2
  0
LINE
  5
102142
  8
HOEHENLINIEN
 10
17.305
 20
-9.435
 30
455.0
 11
18.709
 21
-9.546
 31
455.0
  0
LINE
  5
102143
  8
HOEHENLINIEN
 10
16.486
 20
-9.472
 30
454.8
 11
18.704
 21
-9.647
 31
454.8
  0
LINE
  5
102144
  8
HOEHENLINIEN
 10
15.666
 20
-9.51
 30
454.6
 11
18.699
 21
-9.749
 31
454.6
  0
LINE
  5
102145
  8
HOEHENLINIEN
 10
14.847
 20
-9.547
 30
454.4
 11
18.694
 21
-9.85
 31
454.4
  0
LINE
  5
102146
  8
HOEHENLINIEN
 10
14.028
 20
-9.584
 30
454.2
 11
18.689
 21
-9.952
 31
454.2
  0
LINE
  5
102147
  8
HOEHENLINIEN
 10
13.367
 20
-8.972
 30
455.2
 11
18.124
 21
-9.398
 31
455.2
  0
LINE
  5
102148
  8
HOEHENLINIEN
 10
13.494
 20
-9.094
 30
455.0
 11
17.305
 21
-9.435
 31
455.0
  0
LINE
  5
102149
  8
HOEHENLINIEN
 10
13.621
 20
-9.216
 30
454.8
 11
16.486
 21
-9.472
 31
454.8
  0
LINE
  5
10214A
  8
HOEHENLINIEN
 10
13.749
 20
-9.338
 30
454.6
 11
15.666
 21
-9.51
 31
454.6
  0
LINE
  5
10214B
  8
HOEHENLINIEN
 10
13.876
 20
-9.46
 30
454.4
 11
14.847
 21
-9.547
 31
454.4
  0
LINE
  5
10214C
  8
HOEHENLINIEN
 10
14.004
 20
-9.582
 30
454.2
 11
14.028
 21
-9.584
 31
454.2
  0
LINE
  5
10214D
  8
HOEHENLINIEN
 10
17.625
 20
-5.47
 30
455.4
 11
15.148
 21
-5.065
 31
455.4
  0
LINE
  5
10214E
  8
HOEHENLINIEN
 10
12.837
 20
-3.714
 30
455.4
 11
15.148
 21
-5.065
 31
455.4
  0
LINE
  5
10214F
  8
HOEHENLINIEN
 10
11.082
 20
-4.717
 30
455.4
 11
12.837
 21
-3.714
 31
455.4
  0
LINE
  5
102150
  8
HOEHENLINIEN
 10
8.817
 20
-7.843
 30
455.4
 11
11.082
 21
-4.717
 31
455.4
  0
LINE
  5
102151
  8
HOEHENLINIEN
 10
2.044
 20
-7.171
 30
455.4
 11
1.618
 21
-3.384
 31
455.4
  0
LINE
  5
102152
  8
HOEHENLINIEN
 10
1.125
 20
-6.608
 30
455.2
 11
1.058
 21
-6.016
 31
455.2
  0
LINE
  5
102153
  8
HOEHENLINIEN
 10
1.618
 20
-3.384
 30
455.4
 11
1.242
 21
-2.649
 31
455.4
  0
LINE
  5
102154
  8
HOEHENLINIEN
 10
1.058
 20
-6.016
 30
455.2
 11
-0.66
 21
-2.651
 31
455.2
  0
LINE
  5
102155
  8
HOEHENLINIEN
 10
-2.047
 20
-0.219
 30
455.4
 11
-2.064
 21
-0.218
 31
455.4
  0
LINE
  5
102156
  8
HOEHENLINIEN
 10
-1.264
 20
-2.205
 30
455.2
 11
-4.792
 21
-1.983
 31
455.2
  0
LINE
  5
102157
  8
HOEHENLINIEN
 10
-2.064
 20
-0.218
 30
455.4
 11
-5.924
 21
-0.51
 31
455.4
  0
LINE
  5
102158
  8
HOEHENLINIEN
 10
-4.792
 20
-1.983
 30
455.2
 11
-5.924
 21
-2.068
 31
455.2
  0
LINE
  5
102159
  8
HOEHENLINIEN
 10
-5.924
 20
-0.51
 30
455.4
 11
-5.966
 21
-0.276
 31
455.4
  0
LINE
  5
10215A
  8
HOEHENLINIEN
 10
-5.924
 20
-2.068
 30
455.2
 11
-6.022
 21
-1.526
 31
455.2
  0
LINE
  5
10215B
  8
HOEHENLINIEN
 10
-6.075
 20
-2.757
 30
455.0
 11
-5.964
 21
-3.117
 31
455.0
  0
LINE
  5
10215C
  8
HOEHENLINIEN
 10
-6.081
 20
-3.648
 30
454.8
 11
-6.032
 21
-3.805
 31
454.8
  0
LINE
  5
10215D
  8
HOEHENLINIEN
 10
-5.964
 20
-3.117
 30
455.0
 11
-2.609
 21
-3.164
 31
455.0
  0
LINE
  5
10215E
  8
HOEHENLINIEN
 10
-6.032
 20
-3.805
 30
454.8
 11
-4.573
 21
-3.825
 31
454.8
  0
LINE
  5
10215F
  8
HOEHENLINIEN
 10
-3.27
 20
-5.84
 30
455.0
 11
-2.609
 21
-3.164
 31
455.0
  0
LINE
  5
102160
  8
HOEHENLINIEN
 10
-4.86
 20
-4.989
 30
454.8
 11
-4.573
 21
-3.825
 31
454.8
  0
LINE
  5
102161
  8
HOEHENLINIEN
 10
-3.871
 20
-5.556
 30
455.0
 11
-3.27
 21
-5.84
 31
455.0
  0
LINE
  5
102162
  8
HOEHENLINIEN
 10
-5.454
 20
-4.709
 30
454.8
 11
-4.86
 21
-4.989
 31
454.8
  0
LINE
  5
102163
  8
HOEHENLINIEN
 10
-5.454
 20
-4.709
 30
454.8
 11
-5.18
 21
-5.057
 31
454.8
  0
LINE
  5
102164
  8
HOEHENLINIEN
 10
-6.081
 20
-4.467
 30
454.6
 11
-5.501
 21
-5.203
 31
454.6
  0
LINE
  5
102165
  8
HOEHENLINIEN
 10
-6.063
 20
-5.044
 30
454.4
 11
-5.822
 21
-5.35
 31
454.4
  0
LINE
  5
102166
  8
HOEHENLINIEN
 10
-5.18
 20
-5.057
 30
454.8
 11
-4.83
 21
-5.261
 31
454.8
  0
LINE
  5
102167
  8
HOEHENLINIEN
 10
-5.501
 20
-5.203
 30
454.6
 11
-4.512
 21
-5.779
 31
454.6
  0
LINE
  5
102168
  8
HOEHENLINIEN
 10
-5.822
 20
-5.35
 30
454.4
 11
-4.195
 21
-6.298
 31
454.4
  0
LINE
  5
102169
  8
HOEHENLINIEN
 10
-4.306
 20
-6.567
 30
454.2
 11
-3.878
 21
-6.816
 31
454.2
  0
LINE
  5
10216A
  8
HOEHENLINIEN
 10
-4.306
 20
-6.567
 30
454.2
 11
-5.748
 21
-6.875
 31
454.2
  0
LINE
  5
10216B
  8
HOEHENLINIEN
 10
-5.749
 20
-6.874
 30
454.2
 11
-6.053
 21
-5.815
 31
454.2
  0
LINE
  5
10216C
  8
HOEHENLINIEN
 10
-5.098
 20
-10.422
 30
454.0
 11
-6.065
 21
-7.059
 31
454.0
  0
LINE
  5
10216D
  8
HOEHENLINIEN
 10
-5.475
 20
-10.395
 30
453.8
 11
-6.077
 21
-8.303
 31
453.8
  0
LINE
  5
10216E
  8
HOEHENLINIEN
 10
-5.853
 20
-10.367
 30
453.6
 11
-6.088
 21
-9.547
 31
453.6
  0
LINE
  5
10216F
  8
HOEHENLINIEN
 10
-5.098
 20
-10.422
 30
454.0
 11
-5.022
 21
-10.605
 31
454.0
  0
LINE
  5
102170
  8
HOEHENLINIEN
 10
-5.475
 20
-10.395
 30
453.8
 11
-5.124
 21
-11.244
 31
453.8
  0
LINE
  5
102171
  8
HOEHENLINIEN
 10
-5.853
 20
-10.367
 30
453.6
 11
-5.226
 21
-11.884
 31
453.6
  0
LINE
  5
102172
  8
HOEHENLINIEN
 10
-6.041
 20
-10.798
 30
453.4
 11
-5.328
 21
-12.524
 31
453.4
  0
LINE
  5
102173
  8
HOEHENLINIEN
 10
-5.886
 20
-12.061
 30
453.2
 11
-5.43
 21
-13.164
 31
453.2
  0
LINE
  5
102174
  8
HOEHENLINIEN
 10
-5.73
 20
-13.324
 30
453.0
 11
-5.532
 21
-13.803
 31
453.0
  0
LINE
  5
102175
  8
HOEHENLINIEN
 10
-5.432
 20
-14.491
 30
452.8
 11
-5.625
 21
-14.454
 31
452.8
  0
LINE
  5
102176
  8
HOEHENLINIEN
 10
-4.655
 20
-15.341
 30
452.6
 11
-5.685
 21
-15.143
 31
452.6
  0
LINE
  5
102177
  8
HOEHENLINIEN
 10
-3.877
 20
-16.191
 30
452.4
 11
-5.745
 21
-15.832
 31
452.4
  0
LINE
  5
102178
  8
HOEHENLINIEN
 10
-3.1
 20
-17.041
 30
452.2
 11
-5.805
 21
-16.52
 31
452.2
  0
LINE
  5
102179
  8
HOEHENLINIEN
 10
-2.322
 20
-17.891
 30
452.0
 11
-5.865
 21
-17.209
 31
452.0
  0
LINE
  5
10217A
  8
HOEHENLINIEN
 10
-5.444
 20
-17.99
 30
451.8
 11
-5.925
 21
-17.898
 31
451.8
  0
LINE
  5
10217B
  8
HOEHENLINIEN
 10
-4.0
 20
-13.725
 30
453.8
 11
-3.582
 21
-13.998
 31
453.8
  0
LINE
  5
10217C
  8
HOEHENLINIEN
 10
-4.337
 20
-13.845
 30
453.6
 11
-3.44
 21
-14.433
 31
453.6
  0
LINE
  5
10217D
  8
HOEHENLINIEN
 10
-4.675
 20
-13.964
 30
453.4
 11
-3.297
 21
-14.867
 31
453.4
  0
LINE
  5
10217E
  8
HOEHENLINIEN
 10
-5.013
 20
-14.084
 30
453.2
 11
-3.155
 21
-15.301
 31
453.2
  0
LINE
  5
10217F
  8
HOEHENLINIEN
 10
-5.351
 20
-14.204
 30
453.0
 11
-3.012
 21
-15.735
 31
453.0
  0
LINE
  5
102180
  8
HOEHENLINIEN
 10
-5.432
 20
-14.491
 30
452.8
 11
-2.87
 21
-16.169
 31
452.8
  0
LINE
  5
102181
  8
HOEHENLINIEN
 10
-4.655
 20
-15.341
 30
452.6
 11
-2.727
 21
-16.603
 31
452.6
  0
LINE
  5
102182
  8
HOEHENLINIEN
 10
-3.877
 20
-16.191
 30
452.4
 11
-2.585
 21
-17.038
 31
452.4
  0
LINE
  5
102183
  8
HOEHENLINIEN
 10
-3.1
 20
-17.041
 30
452.2
 11
-2.442
 21
-17.472
 31
452.2
  0
LINE
  5
102184
  8
HOEHENLINIEN
 10
-2.322
 20
-17.891
 30
452.0
 11
-2.3
 21
-17.906
 31
452.0
  0
LINE
  5
102185
  8
HOEHENLINIEN
 10
-2.427
 20
-13.66
 30
454.0
 11
0.424
 21
-13.869
 31
454.0
  0
LINE
  5
102186
  8
HOEHENLINIEN
 10
-3.582
 20
-13.998
 30
453.8
 11
0.153
 21
-14.273
 31
453.8
  0
LINE
  5
102187
  8
HOEHENLINIEN
 10
-3.44
 20
-14.433
 30
453.6
 11
-0.118
 21
-14.676
 31
453.6
  0
LINE
  5
102188
  8
HOEHENLINIEN
 10
-3.297
 20
-14.867
 30
453.4
 11
-0.389
 21
-15.08
 31
453.4
  0
LINE
  5
102189
  8
HOEHENLINIEN
 10
-3.155
 20
-15.301
 30
453.2
 11
-0.66
 21
-15.484
 31
453.2
  0
LINE
  5
10218A
  8
HOEHENLINIEN
 10
-3.012
 20
-15.735
 30
453.0
 11
-0.931
 21
-15.888
 31
453.0
  0
LINE
  5
10218B
  8
HOEHENLINIEN
 10
-2.87
 20
-16.169
 30
452.8
 11
-1.202
 21
-16.292
 31
452.8
  0
LINE
  5
10218C
  8
HOEHENLINIEN
 10
-2.727
 20
-16.603
 30
452.6
 11
-1.473
 21
-16.695
 31
452.6
  0
LINE
  5
10218D
  8
HOEHENLINIEN
 10
-2.585
 20
-17.038
 30
452.4
 11
-1.744
 21
-17.099
 31
452.4
  0
LINE
  5
10218E
  8
HOEHENLINIEN
 10
-2.442
 20
-17.472
 30
452.2
 11
-2.015
 21
-17.503
 31
452.2
  0
LINE
  5
10218F
  8
HOEHENLINIEN
 10
-2.3
 20
-17.906
 30
452.0
 11
-2.286
 21
-17.907
 31
452.0
  0
LINE
  5
102190
  8
HOEHENLINIEN
 10
0.577
 20
-13.893
 30
454.0
 11
0.424
 21
-13.869
 31
454.0
  0
LINE
  5
102191
  8
HOEHENLINIEN
 10
0.817
 20
-14.379
 30
453.8
 11
0.153
 21
-14.273
 31
453.8
  0
LINE
  5
102192
  8
HOEHENLINIEN
 10
1.057
 20
-14.865
 30
453.6
 11
-0.118
 21
-14.676
 31
453.6
  0
LINE
  5
102193
  8
HOEHENLINIEN
 10
1.297
 20
-15.35
 30
453.4
 11
-0.389
 21
-15.08
 31
453.4
  0
LINE
  5
102194
  8
HOEHENLINIEN
 10
1.537
 20
-15.836
 30
453.2
 11
-0.66
 21
-15.484
 31
453.2
  0
LINE
  5
102195
  8
HOEHENLINIEN
 10
1.777
 20
-16.322
 30
453.0
 11
-0.931
 21
-15.888
 31
453.0
  0
LINE
  5
102196
  8
HOEHENLINIEN
 10
2.017
 20
-16.808
 30
452.8
 11
-1.202
 21
-16.292
 31
452.8
  0
LINE
  5
102197
  8
HOEHENLINIEN
 10
2.257
 20
-17.293
 30
452.6
 11
-1.473
 21
-16.695
 31
452.6
  0
LINE
  5
102198
  8
HOEHENLINIEN
 10
1.658
 20
-17.644
 30
452.4
 11
-1.744
 21
-17.099
 31
452.4
  0
LINE
  5
102199
  8
HOEHENLINIEN
 10
-0.285
 20
-17.78
 30
452.2
 11
-2.015
 21
-17.503
 31
452.2
  0
LINE
  5
10219A
  8
HOEHENLINIEN
 10
-2.227
 20
-17.916
 30
452.0
 11
-2.286
 21
-17.907
 31
452.0
  0
LINE
  5
10219B
  8
HOEHENLINIEN
 10
0.577
 20
-13.893
 30
454.0
 11
4.84
 21
-14.184
 31
454.0
  0
LINE
  5
10219C
  8
HOEHENLINIEN
 10
0.817
 20
-14.379
 30
453.8
 11
4.52
 21
-14.632
 31
453.8
  0
LINE
  5
10219D
  8
HOEHENLINIEN
 10
1.057
 20
-14.865
 30
453.6
 11
4.201
 21
-15.079
 31
453.6
  0
LINE
  5
10219E
  8
HOEHENLINIEN
 10
1.297
 20
-15.351
 30
453.4
 11
3.881
 21
-15.527
 31
453.4
  0
LINE
  5
10219F
  8
HOEHENLINIEN
 10
1.537
 20
-15.836
 30
453.2
 11
3.561
 21
-15.974
 31
453.2
  0
LINE
  5
1021A0
  8
HOEHENLINIEN
 10
1.777
 20
-16.322
 30
453.0
 11
3.241
 21
-16.422
 31
453.0
  0
LINE
  5
1021A1
  8
HOEHENLINIEN
 10
2.017
 20
-16.808
 30
452.8
 11
2.921
 21
-16.869
 31
452.8
  0
LINE
  5
1021A2
  8
HOEHENLINIEN
 10
2.257
 20
-17.293
 30
452.6
 11
2.602
 21
-17.317
 31
452.6
  0
LINE
  5
1021A3
  8
HOEHENLINIEN
 10
5.091
 20
-14.247
 30
454.0
 11
4.84
 21
-14.184
 31
454.0
  0
LINE
  5
1021A4
  8
HOEHENLINIEN
 10
5.546
 20
-14.888
 30
453.8
 11
4.52
 21
-14.632
 31
453.8
  0
LINE
  5
1021A5
  8
HOEHENLINIEN
 10
6.0
 20
-15.53
 30
453.6
 11
4.201
 21
-15.079
 31
453.6
  0
LINE
  5
1021A6
  8
HOEHENLINIEN
 10
6.455
 20
-16.171
 30
453.4
 11
3.881
 21
-15.527
 31
453.4
  0
LINE
  5
1021A7
  8
HOEHENLINIEN
 10
6.909
 20
-16.812
 30
453.2
 11
3.561
 21
-15.974
 31
453.2
  0
LINE
  5
1021A8
  8
HOEHENLINIEN
 10
5.707
 20
-17.039
 30
453.0
 11
3.241
 21
-16.422
 31
453.0
  0
LINE
  5
1021A9
  8
HOEHENLINIEN
 10
4.444
 20
-17.25
 30
452.8
 11
2.921
 21
-16.869
 31
452.8
  0
LINE
  5
1021AA
  8
HOEHENLINIEN
 10
3.182
 20
-17.462
 30
452.6
 11
2.602
 21
-17.317
 31
452.6
  0
LINE
  5
1021AB
  8
HOEHENLINIEN
 10
10.257
 20
-15.085
 30
454.0
 11
5.092
 21
-14.247
 31
454.0
  0
LINE
  5
1021AC
  8
HOEHENLINIEN
 10
9.431
 20
-15.519
 30
453.8
 11
5.546
 21
-14.889
 31
453.8
  0
LINE
  5
1021AD
  8
HOEHENLINIEN
 10
8.606
 20
-15.953
 30
453.6
 11
6.0
 21
-15.53
 31
453.6
  0
LINE
  5
1021AE
  8
HOEHENLINIEN
 10
7.78
 20
-16.386
 30
453.4
 11
6.455
 21
-16.171
 31
453.4
  0
LINE
  5
1021AF
  8
HOEHENLINIEN
 10
6.954
 20
-16.82
 30
453.2
 11
6.909
 21
-16.812
 31
453.2
  0
LINE
  5
1021B0
  8
HOEHENLINIEN
 10
10.579
 20
-15.175
 30
454.0
 11
10.257
 21
-15.085
 31
454.0
  0
LINE
  5
1021B1
  8
HOEHENLINIEN
 10
11.406
 20
-16.07
 30
453.8
 11
9.431
 21
-15.519
 31
453.8
  0
LINE
  5
1021B2
  8
HOEHENLINIEN
 10
10.833
 20
-16.574
 30
453.6
 11
8.606
 21
-15.953
 31
453.6
  0
LINE
  5
1021B3
  8
HOEHENLINIEN
 10
8.913
 20
-16.702
 30
453.4
 11
7.78
 21
-16.386
 31
453.4
  0
LINE
  5
1021B4
  8
HOEHENLINIEN
 10
6.992
 20
-16.83
 30
453.2
 11
6.954
 21
-16.82
 31
453.2
  0
LINE
  5
1021B5
  8
HOEHENLINIEN
 10
13.826
 20
-15.597
 30
454.2
 11
15.106
 21
-16.011
 31
454.2
  0
LINE
  5
1021B6
  8
HOEHENLINIEN
 10
10.579
 20
-15.175
 30
454.0
 11
13.783
 21
-16.21
 31
454.0
  0
LINE
  5
1021B7
  8
HOEHENLINIEN
 10
11.407
 20
-16.07
 30
453.8
 11
12.46
 21
-16.41
 31
453.8
  0
LINE
  5
1021B8
  8
HOEHENLINIEN
 10
16.805
 20
-16.426
 30
454.2
 11
15.106
 21
-16.011
 31
454.2
  0
LINE
  5
1021B9
  8
HOEHENLINIEN
 10
15.908
 20
-16.729
 30
454.0
 11
13.783
 21
-16.21
 31
454.0
  0
LINE
  5
1021BA
  8
HOEHENLINIEN
 10
13.159
 20
-16.581
 30
453.8
 11
12.46
 21
-16.41
 31
453.8
  0
LINE
  5
1021BB
  8
HOEHENLINIEN
 10
20.193
 20
-16.445
 30
454.4
 11
20.531
 21
-16.716
 31
454.4
  0
LINE
  5
1021BC
  8
HOEHENLINIEN
 10
18.342
 20
-16.727
 30
454.2
 11
20.613
 21
-18.548
 31
454.2
  0
LINE
  5
1021BD
  8
HOEHENLINIEN
 10
19.368
 20
-16.283
 30
454.4
 11
20.193
 21
-16.445
 31
454.4
  0
LINE
  5
1021BE
  8
HOEHENLINIEN
 10
16.805
 20
-16.426
 30
454.2
 11
18.342
 21
-16.727
 31
454.2
  0
LINE
  5
1021BF
  8
HOEHENLINIEN
 10
19.368
 20
-16.283
 30
454.4
 11
20.363
 21
-15.955
 31
454.4
  0
LINE
  5
1021C0
  8
HOEHENLINIEN
 10
18.676
 20
-13.697
 30
454.2
 11
19.483
 21
-13.43
 31
454.2
  0
LINE
  5
1021C1
  8
HOEHENLINIEN
 10
22.068
 20
-13.863
 30
454.4
 11
20.363
 21
-15.955
 31
454.4
  0
LINE
  5
1021C2
  8
HOEHENLINIEN
 10
19.645
 20
-13.231
 30
454.2
 11
19.483
 21
-13.43
 31
454.2
  0
LINE
  5
1021C3
  8
HOEHENLINIEN
 10
22.068
 20
-13.863
 30
454.4
 11
22.091
 21
-10.829
 31
454.4
  0
LINE
  5
1021C4
  8
HOEHENLINIEN
 10
19.645
 20
-13.231
 30
454.2
 11
19.647
 21
-12.943
 31
454.2
  0
LINE
  5
1021C5
  8
HOEHENLINIEN
 10
21.948
 20
-10.191
 30
454.4
 11
22.091
 21
-10.829
 31
454.4
  0
LINE
  5
1021C6
  8
HOEHENLINIEN
 10
18.985
 20
-9.983
 30
454.2
 11
19.647
 21
-12.943
 31
454.2
  0
LINE
  5
1021C7
  8
HOEHENLINIEN
 10
19.377
 20
-9.514
 30
455.2
 11
18.714
 21
-9.445
 31
455.2
  0
LINE
  5
1021C8
  8
HOEHENLINIEN
 10
20.285
 20
-9.711
 30
455.0
 11
18.709
 21
-9.546
 31
455.0
  0
LINE
  5
1021C9
  8
HOEHENLINIEN
 10
21.194
 20
-9.908
 30
454.8
 11
18.704
 21
-9.647
 31
454.8
  0
LINE
  5
1021CA
  8
HOEHENLINIEN
 10
22.103
 20
-10.105
 30
454.6
 11
18.699
 21
-9.749
 31
454.6
  0
LINE
  5
1021CB
  8
HOEHENLINIEN
 10
21.948
 20
-10.191
 30
454.4
 11
18.694
 21
-9.85
 31
454.4
  0
LINE
  5
1021CC
  8
HOEHENLINIEN
 10
18.985
 20
-9.983
 30
454.2
 11
18.689
 21
-9.952
 31
454.2
  0
LINE
  5
1021CD
  8
HOEHENLINIEN
 10
20.839
 20
-9.453
 30
455.4
 11
22.945
 21
-9.573
 31
455.4
  0
LINE
  5
1021CE
  8
HOEHENLINIEN
 10
19.377
 20
-9.514
 30
455.2
 11
22.907
 21
-9.716
 31
455.2
  0
LINE
  5
1021CF
  8
HOEHENLINIEN
 10
20.285
 20
-9.711
 30
455.0
 11
22.868
 21
-9.859
 31
455.0
  0
LINE
  5
1021D0
  8
HOEHENLINIEN
 10
21.194
 20
-9.908
 30
454.8
 11
22.829
 21
-10.002
 31
454.8
  0
LINE
  5
1021D1
  8
HOEHENLINIEN
 10
22.103
 20
-10.105
 30
454.6
 11
22.79
 21
-10.144
 31
454.6
  0
LINE
  5
1021D2
  8
HOEHENLINIEN
 10
23.098
 20
-5.32
 30
455.6
 11
22.943
 21
-5.193
 31
455.6
  0
LINE
  5
1021D3
  8
HOEHENLINIEN
 10
20.837
 20
-9.453
 30
455.4
 11
19.629
 21
-8.47
 31
455.4
  0
LINE
  5
1021D4
  8
HOEHENLINIEN
 10
22.708
 20
-4.842
 30
455.6
 11
22.943
 21
-5.193
 31
455.6
  0
LINE
  5
1021D5
  8
HOEHENLINIEN
 10
17.625
 20
-5.47
 30
455.4
 11
19.629
 21
-8.47
 31
455.4
  0
LINE
  5
1021D6
  8
HOEHENLINIEN
 10
21.664
 20
-3.394
 30
455.6
 11
22.708
 21
-4.842
 31
455.6
  0
LINE
  5
1021D7
  8
HOEHENLINIEN
 10
23.092
 20
-2.09
 30
455.8
 11
23.039
 21
-2.024
 31
455.8
  0
LINE
  5
1021D8
  8
HOEHENLINIEN
 10
21.664
 20
-3.394
 30
455.6
 11
19.503
 21
-0.717
 31
455.6
  0
LINE
  5
1021D9
  8
HOEHENLINIEN
 10
23.039
 20
-2.024
 30
455.8
 11
21.345
 21
-0.709
 31
455.8
  0
LINE
  5
1021DA
  8
HOEHENLINIEN
 10
19.503
 20
-0.717
 30
455.6
 11
19.371
 21
-0.614
 31
455.6
  0
LINE
  5
1021DB
  8
HOEHENLINIEN
 10
22.533
 20
-0.51
 30
456.0
 11
19.376
 21
0.668
 31
456.0
  0
LINE
  5
1021DC
  8
HOEHENLINIEN
 10
21.345
 20
-0.709
 30
455.8
 11
19.293
 21
0.057
 31
455.8
  0
LINE
  5
1021DD
  8
HOEHENLINIEN
 10
19.371
 20
-0.614
 30
455.6
 11
19.21
 21
-0.554
 31
455.6
  0
LINE
  5
1021DE
  8
HOEHENLINIEN
 10
19.489
 20
2.429
 30
456.4
 11
19.858
 21
2.319
 31
456.4
  0
LINE
  5
1021DF
  8
HOEHENLINIEN
 10
19.445
 20
1.422
 30
456.2
 11
21.387
 21
0.848
 31
456.2
  0
LINE
  5
1021E0
  8
HOEHENLINIEN
 10
22.534
 20
-0.511
 30
456.0
 11
22.916
 21
-0.624
 31
456.0
  0
LINE
  5
1021E1
  8
HOEHENLINIEN
 10
22.502
 20
5.54
 30
456.8
 11
22.861
 21
5.558
 31
456.8
  0
LINE
  5
1021E2
  8
HOEHENLINIEN
 10
20.801
 20
3.911
 30
456.6
 11
22.917
 21
4.015
 31
456.6
  0
LINE
  5
1021E3
  8
HOEHENLINIEN
 10
19.858
 20
2.319
 30
456.4
 11
22.974
 21
2.471
 31
456.4
  0
LINE
  5
1021E4
  8
HOEHENLINIEN
 10
21.387
 20
0.848
 30
456.2
 11
23.03
 21
0.928
 31
456.2
  0
LINE
  5
1021E5
  8
HOEHENLINIEN
 10
22.916
 20
-0.624
 30
456.0
 11
23.086
 21
-0.615
 31
456.0
  0
LINE
  5
1021E6
  8
HOEHENLINIEN
 10
19.557
 20
6.476
 30
456.8
 11
22.501
 21
5.54
 31
456.8
  0
LINE
  5
1021E7
  8
HOEHENLINIEN
 10
19.092
 20
4.454
 30
456.6
 11
20.8
 21
3.911
 31
456.6
  0
LINE
  5
1021E8
  8
HOEHENLINIEN
 10
22.435
 20
10.944
 30
457.4
 11
21.895
 21
11.102
 31
457.4
  0
LINE
  5
1021E9
  8
HOEHENLINIEN
 10
22.584
 20
9.13
 30
457.2
 11
20.815
 21
9.648
 31
457.2
  0
LINE
  5
1021EA
  8
HOEHENLINIEN
 10
22.732
 20
7.316
 30
457.0
 11
19.736
 21
8.194
 31
457.0
  0
LINE
  5
1021EB
  8
HOEHENLINIEN
 10
19.557
 20
6.476
 30
456.8
 11
18.656
 21
6.739
 31
456.8
  0
LINE
  5
1021EC
  8
HOEHENLINIEN
 10
20.91
 20
11.319
 30
457.4
 11
21.895
 21
11.102
 31
457.4
  0
LINE
  5
1021ED
  8
HOEHENLINIEN
 10
18.454
 20
10.168
 30
457.2
 11
20.815
 21
9.648
 31
457.2
  0
LINE
  5
1021EE
  8
HOEHENLINIEN
 10
18.52
 20
8.461
 30
457.0
 11
19.736
 21
8.194
 31
457.0
  0
LINE
  5
1021EF
  8
HOEHENLINIEN
 10
18.587
 20
6.755
 30
456.8
 11
18.656
 21
6.739
 31
456.8
  0
LINE
  5
1021F0
  8
HOEHENLINIEN
 10
20.102
 20
14.708
 30
457.8
 11
19.754
 21
14.776
 31
457.8
  0
LINE
  5
1021F1
  8
HOEHENLINIEN
 10
21.556
 20
12.807
 30
457.6
 11
19.274
 21
13.256
 31
457.6
  0
LINE
  5
1021F2
  8
HOEHENLINIEN
 10
20.909
 20
11.319
 30
457.4
 11
18.794
 21
11.736
 31
457.4
  0
LINE
  5
1021F3
  8
HOEHENLINIEN
 10
20.835
 20
14.579
 30
457.8
 11
20.102
 21
14.708
 31
457.8
  0
LINE
  5
1021F4
  8
HOEHENLINIEN
 10
22.237
 20
12.687
 30
457.6
 11
21.556
 21
12.807
 31
457.6
  0
LINE
  5
1021F5
  8
HOEHENLINIEN
 10
17.845
 20
17.604
 30
459.2
 11
21.69
 21
17.889
 31
459.2
  0
LINE
  5
1021F6
  8
HOEHENLINIEN
 10
17.648
 20
17.193
 30
459.0
 11
21.419
 21
17.473
 31
459.0
  0
LINE
  5
1021F7
  8
HOEHENLINIEN
 10
18.025
 20
16.825
 30
458.8
 11
21.147
 21
17.056
 31
458.8
  0
LINE
  5
1021F8
  8
HOEHENLINIEN
 10
18.401
 20
16.457
 30
458.6
 11
20.876
 21
16.64
 31
458.6
  0
LINE
  5
1021F9
  8
HOEHENLINIEN
 10
18.778
 20
16.088
 30
458.4
 11
20.605
 21
16.224
 31
458.4
  0
LINE
  5
1021FA
  8
HOEHENLINIEN
 10
19.155
 20
15.72
 30
458.2
 11
20.334
 21
15.808
 31
458.2
  0
LINE
  5
1021FB
  8
HOEHENLINIEN
 10
19.531
 20
15.352
 30
458.0
 11
20.062
 21
15.391
 31
458.0
  0
LINE
  5
1021FC
  8
HOEHENLINIEN
 10
17.648
 20
17.193
 30
459.0
 11
17.177
 21
17.163
 31
459.0
  0
LINE
  5
1021FD
  8
HOEHENLINIEN
 10
18.025
 20
16.825
 30
458.8
 11
17.02
 21
16.76
 31
458.8
  0
LINE
  5
1021FE
  8
HOEHENLINIEN
 10
18.401
 20
16.457
 30
458.6
 11
16.864
 21
16.358
 31
458.6
  0
LINE
  5
1021FF
  8
HOEHENLINIEN
 10
18.778
 20
16.089
 30
458.4
 11
16.708
 21
15.955
 31
458.4
  0
LINE
  5
102200
  8
HOEHENLINIEN
 10
19.155
 20
15.72
 30
458.2
 11
16.551
 21
15.552
 31
458.2
  0
LINE
  5
102201
  8
HOEHENLINIEN
 10
19.531
 20
15.352
 30
458.0
 11
16.395
 21
15.149
 31
458.0
  0
LINE
  5
102202
  8
HOEHENLINIEN
 10
19.064
 20
14.929
 30
457.8
 11
16.238
 21
14.747
 31
457.8
  0
LINE
  5
102203
  8
HOEHENLINIEN
 10
14.449
 20
16.816
 30
459.0
 11
17.177
 21
17.163
 31
459.0
  0
LINE
  5
102204
  8
HOEHENLINIEN
 10
13.685
 20
16.337
 30
458.8
 11
17.02
 21
16.76
 31
458.8
  0
LINE
  5
102205
  8
HOEHENLINIEN
 10
14.116
 20
16.009
 30
458.6
 11
16.864
 21
16.358
 31
458.6
  0
LINE
  5
102206
  8
HOEHENLINIEN
 10
14.546
 20
15.68
 30
458.4
 11
16.708
 21
15.955
 31
458.4
  0
LINE
  5
102207
  8
HOEHENLINIEN
 10
14.977
 20
15.352
 30
458.2
 11
16.551
 21
15.552
 31
458.2
  0
LINE
  5
102208
  8
HOEHENLINIEN
 10
15.408
 20
15.024
 30
458.0
 11
16.395
 21
15.149
 31
458.0
  0
LINE
  5
102209
  8
HOEHENLINIEN
 10
15.839
 20
14.696
 30
457.8
 11
16.238
 21
14.747
 31
457.8
  0
LINE
  5
10220A
  8
HOEHENLINIEN
 10
13.458
 20
16.316
 30
458.8
 11
13.685
 21
16.337
 31
458.8
  0
LINE
  5
10220B
  8
HOEHENLINIEN
 10
13.553
 20
15.956
 30
458.6
 11
14.116
 21
16.009
 31
458.6
  0
LINE
  5
10220C
  8
HOEHENLINIEN
 10
13.648
 20
15.597
 30
458.4
 11
14.546
 21
15.68
 31
458.4
  0
LINE
  5
10220D
  8
HOEHENLINIEN
 10
13.743
 20
15.238
 30
458.2
 11
14.977
 21
15.352
 31
458.2
  0
LINE
  5
10220E
  8
HOEHENLINIEN
 10
13.838
 20
14.879
 30
458.0
 11
15.408
 21
15.024
 31
458.0
  0
LINE
  5
10220F
  8
HOEHENLINIEN
 10
13.932
 20
14.52
 30
457.8
 11
15.839
 21
14.696
 31
457.8
  0
LINE
  5
102210
  8
HOEHENLINIEN
 10
13.087
 20
16.098
 30
458.8
 11
13.458
 21
16.316
 31
458.8
  0
LINE
  5
102211
  8
HOEHENLINIEN
 10
12.631
 20
15.416
 30
458.6
 11
13.553
 21
15.956
 31
458.6
  0
LINE
  5
102212
  8
HOEHENLINIEN
 10
12.176
 20
14.734
 30
458.4
 11
13.648
 21
15.597
 31
458.4
  0
LINE
  5
102213
  8
HOEHENLINIEN
 10
12.477
 20
14.496
 30
458.2
 11
13.743
 21
15.238
 31
458.2
  0
LINE
  5
102214
  8
HOEHENLINIEN
 10
13.127
 20
14.462
 30
458.0
 11
13.838
 21
14.879
 31
458.0
  0
LINE
  5
102215
  8
HOEHENLINIEN
 10
13.777
 20
14.428
 30
457.8
 11
13.932
 21
14.52
 31
457.8
  0
LINE
  5
102216
  8
HOEHENLINIEN
 10
10.89
 20
15.453
 30
458.8
 11
13.087
 21
16.098
 31
458.8
  0
LINE
  5
102217
  8
HOEHENLINIEN
 10
11.383
 20
15.05
 30
458.6
 11
12.631
 21
15.416
 31
458.6
  0
LINE
  5
102218
  8
HOEHENLINIEN
 10
11.877
 20
14.646
 30
458.4
 11
12.175
 21
14.734
 31
458.4
  0
LINE
  5
102219
  8
HOEHENLINIEN
 10
10.89
 20
15.453
 30
458.8
 11
10.319
 21
15.47
 31
458.8
  0
LINE
  5
10221A
  8
HOEHENLINIEN
 10
11.383
 20
15.05
 30
458.6
 11
9.785
 21
15.097
 31
458.6
  0
LINE
  5
10221B
  8
HOEHENLINIEN
 10
11.877
 20
14.646
 30
458.4
 11
9.25
 21
14.724
 31
458.4
  0
LINE
  5
10221C
  8
HOEHENLINIEN
 10
9.263
 20
15.373
 30
458.8
 11
10.319
 21
15.47
 31
458.8
  0
LINE
  5
10221D
  8
HOEHENLINIEN
 10
8.412
 20
14.971
 30
458.6
 11
9.785
 21
15.097
 31
458.6
  0
LINE
  5
10221E
  8
HOEHENLINIEN
 10
8.76
 20
14.679
 30
458.4
 11
9.25
 21
14.724
 31
458.4
  0
LINE
  5
10221F
  8
HOEHENLINIEN
 10
8.412
 20
14.971
 30
458.6
 11
7.673
 21
14.944
 31
458.6
  0
LINE
  5
102220
  8
HOEHENLINIEN
 10
8.76
 20
14.679
 30
458.4
 11
6.725
 21
14.603
 31
458.4
  0
LINE
  5
102221
  8
HOEHENLINIEN
 10
4.237
 20
14.153
 30
458.2
 11
3.147
 21
12.954
 31
458.2
  0
LINE
  5
102222
  8
HOEHENLINIEN
 10
-0.78
 20
12.477
 30
458.0
 11
-1.079
 21
12.882
 31
458.0
  0
LINE
  5
102223
  8
HOEHENLINIEN
 10
-3.321
 20
11.937
 30
457.8
 11
-5.944
 21
11.326
 31
457.8
  0
LINE
  5
102224
  8
HOEHENLINIEN
 10
-5.976
 20
9.574
 30
458.0
 11
-5.124
 21
9.827
 31
458.0
  0
LINE
  5
102225
  8
HOEHENLINIEN
 10
-5.124
 20
9.827
 30
458.0
 11
-2.933
 21
10.344
 31
458.0
  0
LINE
  5
102226
  8
HOEHENLINIEN
 10
-2.308
 20
10.062
 30
458.0
 11
-2.933
 21
10.344
 31
458.0
  0
LINE
  5
102227
  8
HOEHENLINIEN
 10
-0.892
 20
10.645
 30
458.0
 11
-2.308
 21
10.062
 31
458.0
  0
LINE
  5
102228
  8
HOEHENLINIEN
 10
-0.892
 20
10.645
 30
458.0
 11
-0.667
 21
11.255
 31
458.0
  0
LINE
  5
102229
  8
HOEHENLINIEN
 10
-0.78
 20
12.477
 30
458.0
 11
-0.667
 21
11.255
 31
458.0
  0
LINE
  5
10222A
  8
HOEHENLINIEN
 10
3.236
 20
11.835
 30
458.2
 11
3.147
 21
12.954
 31
458.2
  0
LINE
  5
10222B
  8
HOEHENLINIEN
 10
3.236
 20
11.835
 30
458.2
 11
2.587
 21
10.757
 31
458.2
  0
LINE
  5
10222C
  8
HOEHENLINIEN
 10
12.78
 20
11.208
 30
458.2
 11
12.539
 21
11.938
 31
458.2
  0
LINE
  5
10222D
  8
HOEHENLINIEN
 10
12.539
 20
11.938
 30
458.2
 11
12.516
 21
12.405
 31
458.2
  0
LINE
  5
10222E
  8
HOEHENLINIEN
 10
13.179
 20
12.671
 30
458.0
 11
13.149
 21
13.288
 31
458.0
  0
LINE
  5
10222F
  8
HOEHENLINIEN
 10
13.788
 20
14.037
 30
457.8
 11
13.782
 21
14.172
 31
457.8
  0
LINE
  5
102230
  8
HOEHENLINIEN
 10
13.179
 20
12.671
 30
458.0
 11
13.158
 21
11.84
 31
458.0
  0
LINE
  5
102231
  8
HOEHENLINIEN
 10
13.788
 20
14.037
 30
457.8
 11
13.733
 21
11.863
 31
457.8
  0
LINE
  5
102232
  8
HOEHENLINIEN
 10
16.306
 20
13.655
 30
457.6
 11
14.979
 21
11.874
 31
457.6
  0
LINE
  5
102233
  8
HOEHENLINIEN
 10
19.064
 20
14.929
 30
457.8
 11
19.538
 21
14.745
 31
457.8
  0
LINE
  5
102234
  8
HOEHENLINIEN
 10
16.306
 20
13.655
 30
457.6
 11
17.86
 21
13.052
 31
457.6
  0
LINE
  5
102235
  8
HOEHENLINIEN
 10
19.538
 20
14.745
 30
457.8
 11
19.754
 21
14.776
 31
457.8
  0
LINE
  5
102236
  8
HOEHENLINIEN
 10
17.86
 20
13.052
 30
457.6
 11
19.274
 21
13.256
 31
457.6
  0
LINE
  5
102237
  8
HOEHENLINIEN
 10
17.189
 20
11.503
 30
457.4
 11
18.794
 21
11.736
 31
457.4
  0
LINE
  5
102238
  8
HOEHENLINIEN
 10
16.695
 20
11.555
 30
457.4
 11
17.189
 21
11.503
 31
457.4
  0
LINE
  5
102239
  8
HOEHENLINIEN
 10
18.379
 20
10.527
 30
457.2
 11
16.715
 21
10.7
 31
457.2
  0
LINE
  5
10223A
  8
HOEHENLINIEN
 10
18.152
 20
10.23
 30
457.0
 11
16.712
 21
10.38
 31
457.0
  0
LINE
  5
10223B
  8
HOEHENLINIEN
 10
17.924
 20
9.933
 30
456.8
 11
16.708
 21
10.059
 31
456.8
  0
LINE
  5
10223C
  8
HOEHENLINIEN
 10
17.697
 20
9.635
 30
456.6
 11
16.705
 21
9.739
 31
456.6
  0
LINE
  5
10223D
  8
HOEHENLINIEN
 10
17.469
 20
9.338
 30
456.4
 11
16.702
 21
9.418
 31
456.4
  0
LINE
  5
10223E
  8
HOEHENLINIEN
 10
17.242
 20
9.041
 30
456.2
 11
16.698
 21
9.097
 31
456.2
  0
LINE
  5
10223F
  8
HOEHENLINIEN
 10
17.014
 20
8.744
 30
456.0
 11
16.695
 21
8.777
 31
456.0
  0
LINE
  5
102240
  8
HOEHENLINIEN
 10
16.787
 20
8.446
 30
455.8
 11
16.691
 21
8.456
 31
455.8
  0
LINE
  5
102241
  8
HOEHENLINIEN
 10
15.898
 20
8.02
 30
455.6
 11
15.613
 21
7.984
 31
455.6
  0
LINE
  5
102242
  8
HOEHENLINIEN
 10
16.445
 20
7.827
 30
455.6
 11
15.898
 21
8.02
 31
455.6
  0
LINE
  5
102243
  8
HOEHENLINIEN
 10
17.347
 20
6.905
 30
455.6
 11
16.445
 21
7.827
 31
455.6
  0
LINE
  5
102244
  8
HOEHENLINIEN
 10
17.347
 20
6.905
 30
455.6
 11
17.339
 21
6.476
 31
455.6
  0
LINE
  5
102245
  8
HOEHENLINIEN
 10
18.345
 20
4.23
 30
455.6
 11
17.339
 21
6.476
 31
455.6
  0
LINE
  5
102246
  8
HOEHENLINIEN
 10
0.694
 20
-0.83
 30
455.4
 11
0.915
 21
-0.115
 31
455.4
  0
LINE
  5
102247
  8
HOEHENLINIEN
 10
0.694
 20
-0.831
 30
455.4
 11
1.242
 21
-2.649
 31
455.4
  0
LINE
  5
102248
  8
HOEHENLINIEN
 10
-0.814
 20
-2.14
 30
455.2
 11
-0.66
 21
-2.651
 31
455.2
  0
LINE
  5
102249
  8
HOEHENLINIEN
 10
-1.953
 20
-0.205
 30
455.4
 11
-2.047
 21
-0.219
 31
455.4
  0
LINE
  5
10224A
  8
HOEHENLINIEN
 10
-0.814
 20
-2.14
 30
455.2
 11
-1.264
 21
-2.205
 31
455.2
  0
LINE
  5
10224B
  8
HOEHENLINIEN
 10
-1.949
 20
-0.205
 30
455.4
 11
-0.347
 21
0.111
 31
455.4
  0
LINE
  5
10224C
  8
HOEHENLINIEN
 10
-6.886
 20
0.786
 30
455.4
 11
-6.956
 21
1.418
 31
455.4
  0
LINE
  5
10224D
  8
HOEHENLINIEN
 10
-8.153
 20
0.933
 30
455.2
 11
-8.166
 21
1.049
 31
455.2
  0
LINE
  5
10224E
  8
HOEHENLINIEN
 10
-6.886
 20
0.786
 30
455.4
 11
-6.594
 21
-0.1
 31
455.4
  0
LINE
  5
10224F
  8
HOEHENLINIEN
 10
-8.153
 20
0.933
 30
455.2
 11
-7.475
 21
-1.118
 31
455.2
  0
LINE
  5
102250
  8
HOEHENLINIEN
 10
-8.494
 20
-1.72
 30
455.0
 11
-8.356
 21
-2.136
 31
455.0
  0
LINE
  5
102251
  8
HOEHENLINIEN
 10
-5.966
 20
-0.276
 30
455.4
 11
-6.594
 21
-0.1
 31
455.4
  0
LINE
  5
102252
  8
HOEHENLINIEN
 10
-6.022
 20
-1.526
 30
455.2
 11
-7.475
 21
-1.118
 31
455.2
  0
LINE
  5
102253
  8
HOEHENLINIEN
 10
-6.669
 20
-2.611
 30
455.0
 11
-8.356
 21
-2.136
 31
455.0
  0
LINE
  5
102254
  8
HOEHENLINIEN
 10
-6.667
 20
-2.611
 30
455.0
 11
-6.075
 21
-2.757
 31
455.0
  0
LINE
  5
102255
  8
HOEHENLINIEN
 10
-7.25
 20
-3.359
 30
454.8
 11
-6.081
 21
-3.648
 31
454.8
  0
LINE
  5
102256
  8
HOEHENLINIEN
 10
-7.25
 20
-3.359
 30
454.8
 11
-8.401
 21
-3.134
 31
454.8
  0
LINE
  5
102257
  8
HOEHENLINIEN
 10
-6.21
 20
-4.532
 30
454.6
 11
-8.274
 21
-4.128
 31
454.6
  0
LINE
  5
102258
  8
HOEHENLINIEN
 10
-6.755
 20
-5.395
 30
454.4
 11
-8.148
 21
-5.122
 31
454.4
  0
LINE
  5
102259
  8
HOEHENLINIEN
 10
-7.299
 20
-6.258
 30
454.2
 11
-8.021
 21
-6.116
 31
454.2
  0
LINE
  5
10225A
  8
HOEHENLINIEN
 10
-7.844
 20
-7.12
 30
454.0
 11
-7.895
 21
-7.11
 31
454.0
  0
LINE
  5
10225B
  8
HOEHENLINIEN
 10
-6.081
 20
-4.467
 30
454.6
 11
-6.21
 21
-4.532
 31
454.6
  0
LINE
  5
10225C
  8
HOEHENLINIEN
 10
-6.063
 20
-5.044
 30
454.4
 11
-6.755
 21
-5.395
 31
454.4
  0
LINE
  5
10225D
  8
HOEHENLINIEN
 10
-6.44
 20
-5.822
 30
454.2
 11
-7.299
 21
-6.258
 31
454.2
  0
LINE
  5
10225E
  8
HOEHENLINIEN
 10
-7.784
 20
-7.09
 30
454.0
 11
-7.844
 21
-7.12
 31
454.0
  0
LINE
  5
10225F
  8
HOEHENLINIEN
 10
-6.44
 20
-5.821
 30
454.2
 11
-6.053
 21
-5.815
 31
454.2
  0
LINE
  5
102260
  8
HOEHENLINIEN
 10
-7.784
 20
-7.09
 30
454.0
 11
-6.065
 21
-7.059
 31
454.0
  0
LINE
  5
102261
  8
HOEHENLINIEN
 10
-7.241
 20
-8.324
 30
453.8
 11
-6.077
 21
-8.303
 31
453.8
  0
LINE
  5
102262
  8
HOEHENLINIEN
 10
-6.545
 20
-9.556
 30
453.6
 11
-6.088
 21
-9.547
 31
453.6
  0
LINE
  5
102263
  8
HOEHENLINIEN
 10
-7.241
 20
-8.324
 30
453.8
 11
-7.89
 21
-8.159
 31
453.8
  0
LINE
  5
102264
  8
HOEHENLINIEN
 10
-6.545
 20
-9.556
 30
453.6
 11
-7.896
 21
-9.212
 31
453.6
  0
LINE
  5
102265
  8
HOEHENLINIEN
 10
-6.711
 20
-10.568
 30
453.4
 11
-7.901
 21
-10.265
 31
453.4
  0
LINE
  5
102266
  8
HOEHENLINIEN
 10
-6.71
 20
-10.568
 30
453.4
 11
-6.041
 21
-10.798
 31
453.4
  0
LINE
  5
102267
  8
HOEHENLINIEN
 10
-7.563
 20
-11.484
 30
453.2
 11
-5.886
 21
-12.061
 31
453.2
  0
LINE
  5
102268
  8
HOEHENLINIEN
 10
-6.46
 20
-13.073
 30
453.0
 11
-5.73
 21
-13.324
 31
453.0
  0
LINE
  5
102269
  8
HOEHENLINIEN
 10
-7.563
 20
-11.484
 30
453.2
 11
-7.893
 21
-11.404
 31
453.2
  0
LINE
  5
10226A
  8
HOEHENLINIEN
 10
-6.46
 20
-13.073
 30
453.0
 11
-7.853
 21
-12.735
 31
453.0
  0
LINE
  5
10226B
  8
HOEHENLINIEN
 10
-6.254
 20
-14.444
 30
452.8
 11
-7.813
 21
-14.066
 31
452.8
  0
LINE
  5
10226C
  8
HOEHENLINIEN
 10
-6.253
 20
-14.444
 30
452.8
 11
-5.625
 21
-14.454
 31
452.8
  0
LINE
  5
10226D
  8
HOEHENLINIEN
 10
-7.609
 20
-15.111
 30
452.6
 11
-5.685
 21
-15.143
 31
452.6
  0
LINE
  5
10226E
  8
HOEHENLINIEN
 10
-7.206
 20
-15.807
 30
452.4
 11
-5.745
 21
-15.832
 31
452.4
  0
LINE
  5
10226F
  8
HOEHENLINIEN
 10
-6.802
 20
-16.504
 30
452.2
 11
-5.805
 21
-16.52
 31
452.2
  0
LINE
  5
102270
  8
HOEHENLINIEN
 10
-6.398
 20
-17.2
 30
452.0
 11
-5.865
 21
-17.209
 31
452.0
  0
LINE
  5
102271
  8
HOEHENLINIEN
 10
-5.995
 20
-17.896
 30
451.8
 11
-5.925
 21
-17.898
 31
451.8
  0
LINE
  5
102272
  8
HOEHENLINIEN
 10
-7.609
 20
-15.111
 30
452.6
 11
-7.808
 21
-15.117
 31
452.6
  0
LINE
  5
102273
  8
HOEHENLINIEN
 10
-7.206
 20
-15.807
 30
452.4
 11
-7.845
 21
-15.825
 31
452.4
  0
LINE
  5
102274
  8
HOEHENLINIEN
 10
-6.802
 20
-16.504
 30
452.2
 11
-7.882
 21
-16.534
 31
452.2
  0
LINE
  5
102275
  8
HOEHENLINIEN
 10
-6.398
 20
-17.2
 30
452.0
 11
-7.919
 21
-17.243
 31
452.0
  0
LINE
  5
102276
  8
HOEHENLINIEN
 10
-5.995
 20
-17.896
 30
451.8
 11
-7.956
 21
-17.951
 31
451.8
  0
LINE
  5
102277
  8
HOEHENLINIEN
 10
-6.57
 20
-18.62
 30
451.6
 11
-7.994
 21
-18.66
 31
451.6
  0
LINE
  5
102278
  8
HOEHENLINIEN
 10
-7.319
 20
-19.349
 30
451.4
 11
-8.031
 21
-19.368
 31
451.4
  0
LINE
  5
102279
  8
HOEHENLINIEN
 10
-1.697
 20
-20.115
 30
451.6
 11
-6.57
 21
-18.62
 31
451.6
  0
LINE
  5
10227A
  8
HOEHENLINIEN
 10
-4.883
 20
-20.096
 30
451.4
 11
-7.319
 21
-19.349
 31
451.4
  0
LINE
  5
10227B
  8
HOEHENLINIEN
 10
-5.444
 20
-17.99
 30
451.8
 11
-1.476
 21
-19.169
 31
451.8
  0
LINE
  5
10227C
  8
HOEHENLINIEN
 10
1.658
 20
-17.644
 30
452.4
 11
2.101
 21
-17.828
 31
452.4
  0
LINE
  5
10227D
  8
HOEHENLINIEN
 10
-0.284
 20
-17.78
 30
452.2
 11
1.31
 21
-18.442
 31
452.2
  0
LINE
  5
10227E
  8
HOEHENLINIEN
 10
-2.227
 20
-17.916
 30
452.0
 11
0.519
 21
-19.055
 31
452.0
  0
LINE
  5
10227F
  8
HOEHENLINIEN
 10
-1.476
 20
-19.169
 30
451.8
 11
-0.272
 21
-19.669
 31
451.8
  0
LINE
  5
102280
  8
HOEHENLINIEN
 10
2.989
 20
-18.245
 30
452.4
 11
2.101
 21
-17.828
 31
452.4
  0
LINE
  5
102281
  8
HOEHENLINIEN
 10
4.506
 20
-19.941
 30
452.2
 11
1.31
 21
-18.442
 31
452.2
  0
LINE
  5
102282
  8
HOEHENLINIEN
 10
2.824
 20
-20.137
 30
452.0
 11
0.519
 21
-19.055
 31
452.0
  0
LINE
  5
102283
  8
HOEHENLINIEN
 10
0.705
 20
-20.127
 30
451.8
 11
-0.272
 21
-19.669
 31
451.8
  0
LINE
  5
102284
  8
HOEHENLINIEN
 10
5.707
 20
-17.039
 30
453.0
 11
6.501
 21
-17.463
 31
453.0
  0
LINE
  5
102285
  8
HOEHENLINIEN
 10
4.444
 20
-17.25
 30
452.8
 11
6.061
 21
-18.114
 31
452.8
  0
LINE
  5
102286
  8
HOEHENLINIEN
 10
3.182
 20
-17.462
 30
452.6
 11
5.621
 21
-18.765
 31
452.6
  0
LINE
  5
102287
  8
HOEHENLINIEN
 10
2.989
 20
-18.245
 30
452.4
 11
5.181
 21
-19.416
 31
452.4
  0
LINE
  5
102288
  8
HOEHENLINIEN
 10
4.506
 20
-19.941
 30
452.2
 11
4.741
 21
-20.067
 31
452.2
  0
LINE
  5
102289
  8
HOEHENLINIEN
 10
7.87
 20
-18.668
 30
453.0
 11
6.501
 21
-17.463
 31
453.0
  0
LINE
  5
10228A
  8
HOEHENLINIEN
 10
8.562
 20
-20.315
 30
452.8
 11
6.061
 21
-18.114
 31
452.8
  0
LINE
  5
10228B
  8
HOEHENLINIEN
 10
7.32
 20
-20.26
 30
452.6
 11
5.621
 21
-18.765
 31
452.6
  0
LINE
  5
10228C
  8
HOEHENLINIEN
 10
6.079
 20
-20.206
 30
452.4
 11
5.181
 21
-19.416
 31
452.4
  0
LINE
  5
10228D
  8
HOEHENLINIEN
 10
4.837
 20
-20.152
 30
452.2
 11
4.741
 21
-20.067
 31
452.2
  0
LINE
  5
10228E
  8
HOEHENLINIEN
 10
10.833
 20
-16.574
 30
453.6
 11
11.452
 21
-16.952
 31
453.6
  0
LINE
  5
10228F
  8
HOEHENLINIEN
 10
8.913
 20
-16.702
 30
453.4
 11
10.747
 21
-17.823
 31
453.4
  0
LINE
  5
102290
  8
HOEHENLINIEN
 10
6.992
 20
-16.83
 30
453.2
 11
10.042
 21
-18.694
 31
453.2
  0
LINE
  5
102291
  8
HOEHENLINIEN
 10
7.87
 20
-18.669
 30
453.0
 11
9.337
 21
-19.564
 31
453.0
  0
LINE
  5
102292
  8
HOEHENLINIEN
 10
12.348
 20
-17.694
 30
453.6
 11
11.452
 21
-16.952
 31
453.6
  0
LINE
  5
102293
  8
HOEHENLINIEN
 10
13.398
 20
-20.021
 30
453.4
 11
10.747
 21
-17.823
 31
453.4
  0
LINE
  5
102294
  8
HOEHENLINIEN
 10
11.796
 20
-20.148
 30
453.2
 11
10.042
 21
-18.694
 31
453.2
  0
LINE
  5
102295
  8
HOEHENLINIEN
 10
10.153
 20
-20.241
 30
453.0
 11
9.337
 21
-19.564
 31
453.0
  0
LINE
  5
102296
  8
HOEHENLINIEN
 10
15.908
 20
-16.729
 30
454.0
 11
16.935
 21
-17.399
 31
454.0
  0
LINE
  5
102297
  8
HOEHENLINIEN
 10
13.159
 20
-16.581
 30
453.8
 11
15.767
 21
-18.28
 31
453.8
  0
LINE
  5
102298
  8
HOEHENLINIEN
 10
12.348
 20
-17.694
 30
453.6
 11
14.599
 21
-19.161
 31
453.6
  0
LINE
  5
102299
  8
HOEHENLINIEN
 10
13.398
 20
-20.021
 30
453.4
 11
13.431
 21
-20.043
 31
453.4
  0
LINE
  5
10229A
  8
HOEHENLINIEN
 10
20.227
 20
-20.017
 30
454.0
 11
16.935
 21
-17.399
 31
454.0
  0
LINE
  5
10229B
  8
HOEHENLINIEN
 10
17.967
 20
-20.03
 30
453.8
 11
15.767
 21
-18.28
 31
453.8
  0
LINE
  5
10229C
  8
HOEHENLINIEN
 10
15.708
 20
-20.043
 30
453.6
 11
14.599
 21
-19.161
 31
453.6
  0
LINE
  5
10229D
  8
HOEHENLINIEN
 10
13.448
 20
-20.056
 30
453.4
 11
13.431
 21
-20.043
 31
453.4
  0
LINE
  5
10229E
  8
HOEHENLINIEN
 10
25.407
 20
-18.48
 30
454.6
 11
23.695
 21
-16.957
 31
454.6
  0
LINE
  5
10229F
  8
HOEHENLINIEN
 10
24.578
 20
-19.792
 30
454.4
 11
22.618
 21
-18.049
 31
454.4
  0
LINE
  5
1022A0
  8
HOEHENLINIEN
 10
22.412
 20
-19.915
 30
454.2
 11
21.541
 21
-19.141
 31
454.2
  0
LINE
  5
1022A1
  8
HOEHENLINIEN
 10
22.586
 20
-16.249
 30
454.6
 11
23.695
 21
-16.957
 31
454.6
  0
LINE
  5
1022A2
  8
HOEHENLINIEN
 10
20.531
 20
-16.716
 30
454.4
 11
22.618
 21
-18.049
 31
454.4
  0
LINE
  5
1022A3
  8
HOEHENLINIEN
 10
20.613
 20
-18.548
 30
454.2
 11
21.541
 21
-19.141
 31
454.2
  0
LINE
  5
1022A4
  8
HOEHENLINIEN
 10
22.586
 20
-16.249
 30
454.6
 11
23.507
 21
-15.097
 31
454.6
  0
LINE
  5
1022A5
  8
HOEHENLINIEN
 10
24.206
 20
-10.404
 30
455.4
 11
24.057
 21
-10.081
 31
455.4
  0
LINE
  5
1022A6
  8
HOEHENLINIEN
 10
24.306
 20
-12.174
 30
455.2
 11
23.705
 21
-10.868
 31
455.2
  0
LINE
  5
1022A7
  8
HOEHENLINIEN
 10
24.406
 20
-13.943
 30
455.0
 11
23.352
 21
-11.656
 31
455.0
  0
LINE
  5
1022A8
  8
HOEHENLINIEN
 10
24.506
 20
-15.713
 30
454.8
 11
23.0
 21
-12.443
 31
454.8
  0
LINE
  5
1022A9
  8
HOEHENLINIEN
 10
23.507
 20
-15.097
 30
454.6
 11
22.648
 21
-13.231
 31
454.6
  0
LINE
  5
1022AA
  8
HOEHENLINIEN
 10
24.081
 20
-9.849
 30
455.4
 11
24.057
 21
-10.081
 31
455.4
  0
LINE
  5
1022AB
  8
HOEHENLINIEN
 10
23.802
 20
-9.933
 30
455.2
 11
23.705
 21
-10.868
 31
455.2
  0
LINE
  5
1022AC
  8
HOEHENLINIEN
 10
23.523
 20
-10.018
 30
455.0
 11
23.352
 21
-11.656
 31
455.0
  0
LINE
  5
1022AD
  8
HOEHENLINIEN
 10
23.244
 20
-10.102
 30
454.8
 11
23.0
 21
-12.443
 31
454.8
  0
LINE
  5
1022AE
  8
HOEHENLINIEN
 10
22.964
 20
-10.187
 30
454.6
 11
22.648
 21
-13.231
 31
454.6
  0
LINE
  5
1022AF
  8
HOEHENLINIEN
 10
22.945
 20
-9.573
 30
455.4
 11
24.081
 21
-9.849
 31
455.4
  0
LINE
  5
1022B0
  8
HOEHENLINIEN
 10
22.907
 20
-9.716
 30
455.2
 11
23.802
 21
-9.933
 31
455.2
  0
LINE
  5
1022B1
  8
HOEHENLINIEN
 10
22.868
 20
-9.859
 30
455.0
 11
23.523
 21
-10.018
 31
455.0
  0
LINE
  5
1022B2
  8
HOEHENLINIEN
 10
22.829
 20
-10.002
 30
454.8
 11
23.244
 21
-10.102
 31
454.8
  0
LINE
  5
1022B3
  8
HOEHENLINIEN
 10
22.79
 20
-10.144
 30
454.6
 11
22.964
 21
-10.187
 31
454.6
  0
LINE
  5
1022B4
  8
HOEHENLINIEN
 10
23.965
 20
-6.47
 30
455.8
 11
23.621
 21
-6.358
 31
455.8
  0
LINE
  5
1022B5
  8
HOEHENLINIEN
 10
24.09
 20
-8.477
 30
455.6
 11
23.235
 21
-8.199
 31
455.6
  0
LINE
  5
1022B6
  8
HOEHENLINIEN
 10
23.56
 20
-5.08
 30
455.8
 11
23.621
 21
-6.358
 31
455.8
  0
LINE
  5
1022B7
  8
HOEHENLINIEN
 10
23.098
 20
-5.32
 30
455.6
 11
23.235
 21
-8.199
 31
455.6
  0
LINE
  5
1022B8
  8
HOEHENLINIEN
 10
23.84
 20
-4.32
 30
456.0
 11
23.558
 21
-3.148
 31
456.0
  0
LINE
  5
1022B9
  8
HOEHENLINIEN
 10
23.56
 20
-5.08
 30
455.8
 11
23.327
 21
-4.113
 31
455.8
  0
LINE
  5
1022BA
  8
HOEHENLINIEN
 10
23.452
 20
-2.234
 30
456.0
 11
23.558
 21
-3.148
 31
456.0
  0
LINE
  5
1022BB
  8
HOEHENLINIEN
 10
23.092
 20
-2.09
 30
455.8
 11
23.327
 21
-4.113
 31
455.8
  0
LINE
  5
1022BC
  8
HOEHENLINIEN
 10
23.726
 20
-2.058
 30
456.2
 11
23.491
 21
-1.096
 31
456.2
  0
LINE
  5
1022BD
  8
HOEHENLINIEN
 10
23.452
 20
-2.234
 30
456.0
 11
23.29
 21
-1.574
 31
456.0
  0
LINE
  5
1022BE
  8
HOEHENLINIEN
 10
23.414
 20
-0.727
 30
456.2
 11
23.491
 21
-1.096
 31
456.2
  0
LINE
  5
1022BF
  8
HOEHENLINIEN
 10
23.125
 20
-0.786
 30
456.0
 11
23.29
 21
-1.574
 31
456.0
  0
LINE
  5
1022C0
  8
HOEHENLINIEN
 10
22.922
 20
5.296
 30
456.8
 11
22.861
 21
5.558
 31
456.8
  0
LINE
  5
1022C1
  8
HOEHENLINIEN
 10
23.275
 20
2.473
 30
456.6
 11
22.917
 21
4.015
 31
456.6
  0
LINE
  5
1022C2
  8
HOEHENLINIEN
 10
23.628
 20
-0.349
 30
456.4
 11
22.974
 21
2.471
 31
456.4
  0
LINE
  5
1022C3
  8
HOEHENLINIEN
 10
23.414
 20
-0.727
 30
456.2
 11
23.03
 21
0.928
 31
456.2
  0
LINE
  5
1022C4
  8
HOEHENLINIEN
 10
23.125
 20
-0.786
 30
456.0
 11
23.086
 21
-0.615
 31
456.0
  0
LINE
  5
1022C5
  8
HOEHENLINIEN
 10
23.082
 20
5.906
 30
457.0
 11
23.36
 21
4.708
 31
457.0
  0
LINE
  5
1022C6
  8
HOEHENLINIEN
 10
22.922
 20
5.296
 30
456.8
 11
23.459
 21
2.98
 31
456.8
  0
LINE
  5
1022C7
  8
HOEHENLINIEN
 10
23.275
 20
2.473
 30
456.6
 11
23.558
 21
1.252
 31
456.6
  0
LINE
  5
1022C8
  8
HOEHENLINIEN
 10
23.628
 20
-0.35
 30
456.4
 11
23.658
 21
-0.475
 31
456.4
  0
LINE
  5
1022C9
  8
HOEHENLINIEN
 10
22.604
 20
10.265
 30
457.4
 11
22.435
 21
10.944
 31
457.4
  0
LINE
  5
1022CA
  8
HOEHENLINIEN
 10
23.135
 20
6.908
 30
457.2
 11
22.584
 21
9.13
 31
457.2
  0
LINE
  5
1022CB
  8
HOEHENLINIEN
 10
23.082
 20
5.906
 30
457.0
 11
22.732
 21
7.316
 31
457.0
  0
LINE
  5
1022CC
  8
HOEHENLINIEN
 10
22.939
 20
12.055
 30
457.8
 11
22.971
 21
11.942
 31
457.8
  0
LINE
  5
1022CD
  8
HOEHENLINIEN
 10
22.574
 20
11.854
 30
457.6
 11
23.067
 21
10.116
 31
457.6
  0
LINE
  5
1022CE
  8
HOEHENLINIEN
 10
22.604
 20
10.265
 30
457.4
 11
23.164
 21
8.29
 31
457.4
  0
LINE
  5
1022CF
  8
HOEHENLINIEN
 10
23.135
 20
6.908
 30
457.2
 11
23.261
 21
6.464
 31
457.2
  0
LINE
  5
1022D0
  8
HOEHENLINIEN
 10
22.744
 20
12.535
 30
457.8
 11
22.939
 21
12.055
 31
457.8
  0
LINE
  5
1022D1
  8
HOEHENLINIEN
 10
22.237
 20
12.687
 30
457.6
 11
22.574
 21
11.854
 31
457.6
  0
LINE
  5
1022D2
  8
HOEHENLINIEN
 10
22.819
 20
16.118
 30
458.4
 11
22.716
 21
16.379
 31
458.4
  0
LINE
  5
1022D3
  8
HOEHENLINIEN
 10
22.868
 20
14.736
 30
458.2
 11
22.51
 21
15.641
 31
458.2
  0
LINE
  5
1022D4
  8
HOEHENLINIEN
 10
22.918
 20
13.354
 30
458.0
 11
22.303
 21
14.904
 31
458.0
  0
LINE
  5
1022D5
  8
HOEHENLINIEN
 10
22.744
 20
12.535
 30
457.8
 11
22.097
 21
14.166
 31
457.8
  0
LINE
  5
1022D6
  8
HOEHENLINIEN
 10
22.428
 20
16.473
 30
458.4
 11
22.716
 21
16.379
 31
458.4
  0
LINE
  5
1022D7
  8
HOEHENLINIEN
 10
21.51
 20
15.968
 30
458.2
 11
22.51
 21
15.641
 31
458.2
  0
LINE
  5
1022D8
  8
HOEHENLINIEN
 10
20.593
 20
15.464
 30
458.0
 11
22.303
 21
14.904
 31
458.0
  0
LINE
  5
1022D9
  8
HOEHENLINIEN
 10
20.835
 20
14.579
 30
457.8
 11
22.097
 21
14.166
 31
457.8
  0
LINE
  5
1022DA
  8
HOEHENLINIEN
 10
22.103
 20
17.945
 30
459.2
 11
21.69
 21
17.889
 31
459.2
  0
LINE
  5
1022DB
  8
HOEHENLINIEN
 10
22.297
 20
17.592
 30
459.0
 11
21.419
 21
17.473
 31
459.0
  0
LINE
  5
1022DC
  8
HOEHENLINIEN
 10
22.49
 20
17.24
 30
458.8
 11
21.147
 21
17.056
 31
458.8
  0
LINE
  5
1022DD
  8
HOEHENLINIEN
 10
22.684
 20
16.887
 30
458.6
 11
20.876
 21
16.64
 31
458.6
  0
LINE
  5
1022DE
  8
HOEHENLINIEN
 10
22.428
 20
16.473
 30
458.4
 11
20.605
 21
16.224
 31
458.4
  0
LINE
  5
1022DF
  8
HOEHENLINIEN
 10
21.51
 20
15.968
 30
458.2
 11
20.334
 21
15.808
 31
458.2
  0
LINE
  5
1022E0
  8
HOEHENLINIEN
 10
20.592
 20
15.464
 30
458.0
 11
20.062
 21
15.391
 31
458.0
  0
LINE
  5
1022E1
  8
HOEHENLINIEN
 10
20.566
 20
18.922
 30
459.6
 11
22.163
 21
19.338
 31
459.6
  0
LINE
  5
1022E2
  8
HOEHENLINIEN
 10
21.796
 20
18.325
 30
459.4
 11
21.954
 21
18.366
 31
459.4
  0
LINE
  5
1022E3
  8
HOEHENLINIEN
 10
20.542
 20
18.918
 30
459.6
 11
20.566
 21
18.922
 31
459.6
  0
LINE
  5
1022E4
  8
HOEHENLINIEN
 10
21.647
 20
18.299
 30
459.4
 11
21.796
 21
18.325
 31
459.4
  0
LINE
  5
1022E5
  8
HOEHENLINIEN
 10
21.348
 20
18.268
 30
459.4
 11
21.647
 21
18.299
 31
459.4
  0
LINE
  5
1022E6
  8
HOEHENLINIEN
 10
21.347
 20
18.268
 30
459.4
 11
18.313
 21
18.068
 31
459.4
  0
LINE
  5
1022E7
  8
HOEHENLINIEN
 10
17.843
 20
17.604
 30
459.2
 11
17.418
 21
17.576
 31
459.2
  0
LINE
  5
1022E8
  8
HOEHENLINIEN
 10
16.94
 20
17.83
 30
459.4
 11
18.313
 21
18.068
 31
459.4
  0
LINE
  5
1022E9
  8
HOEHENLINIEN
 10
17.276
 20
17.551
 30
459.2
 11
17.418
 21
17.576
 31
459.2
  0
LINE
  5
1022EA
  8
HOEHENLINIEN
 10
16.902
 20
17.825
 30
459.4
 11
16.94
 21
17.83
 31
459.4
  0
LINE
  5
1022EB
  8
HOEHENLINIEN
 10
16.87
 20
17.496
 30
459.2
 11
17.276
 21
17.551
 31
459.2
  0
LINE
  5
1022EC
  8
HOEHENLINIEN
 10
16.87
 20
17.496
 30
459.2
 11
14.617
 21
17.18
 31
459.2
  0
LINE
  5
1022ED
  8
HOEHENLINIEN
 10
14.447
 20
16.816
 30
459.0
 11
13.694
 21
16.711
 31
459.0
  0
LINE
  5
1022EE
  8
HOEHENLINIEN
 10
13.375
 20
17.08
 30
459.2
 11
14.617
 21
17.18
 31
459.2
  0
LINE
  5
1022EF
  8
HOEHENLINIEN
 10
13.344
 20
16.682
 30
459.0
 11
13.694
 21
16.711
 31
459.0
  0
LINE
  5
1022F0
  8
HOEHENLINIEN
 10
12.501
 20
16.592
 30
459.0
 11
13.344
 21
16.682
 31
459.0
  0
LINE
  5
1022F1
  8
HOEHENLINIEN
 10
12.501
 20
16.592
 30
459.0
 11
10.974
 21
16.165
 31
459.0
  0
LINE
  5
1022F2
  8
HOEHENLINIEN
 10
10.321
 20
16.305
 30
459.0
 11
10.974
 21
16.165
 31
459.0
  0
LINE
  5
1022F3
  8
HOEHENLINIEN
 10
9.845
 20
16.392
 30
459.0
 11
10.321
 21
16.305
 31
459.0
  0
LINE
  5
1022F4
  8
HOEHENLINIEN
 10
9.263
 20
15.373
 30
458.8
 11
8.322
 21
15.55
 31
458.8
  0
LINE
  5
1022F5
  8
HOEHENLINIEN
 10
6.56
 20
15.776
 30
458.8
 11
8.322
 21
15.55
 31
458.8
  0
LINE
  5
1022F6
  8
HOEHENLINIEN
 10
7.673
 20
14.944
 30
458.6
 11
6.043
 21
15.255
 31
458.6
  0
LINE
  5
1022F7
  8
HOEHENLINIEN
 10
6.725
 20
14.603
 30
458.4
 11
5.976
 21
14.746
 31
458.4
  0
LINE
  5
1022F8
  8
HOEHENLINIEN
 10
5.144
 20
15.502
 30
458.6
 11
6.043
 21
15.255
 31
458.6
  0
LINE
  5
1022F9
  8
HOEHENLINIEN
 10
5.563
 20
14.859
 30
458.4
 11
5.976
 21
14.746
 31
458.4
  0
LINE
  5
1022FA
  8
HOEHENLINIEN
 10
4.764
 20
15.495
 30
458.6
 11
5.144
 21
15.502
 31
458.6
  0
LINE
  5
1022FB
  8
HOEHENLINIEN
 10
4.298
 20
14.836
 30
458.4
 11
5.563
 21
14.859
 31
458.4
  0
LINE
  5
1022FC
  8
HOEHENLINIEN
 10
4.297
 20
14.836
 30
458.4
 11
1.997
 21
14.756
 31
458.4
  0
LINE
  5
1022FD
  8
HOEHENLINIEN
 10
4.237
 20
14.153
 30
458.2
 11
0.193
 21
14.013
 31
458.2
  0
LINE
  5
1022FE
  8
HOEHENLINIEN
 10
1.061
 20
14.899
 30
458.4
 11
1.997
 21
14.756
 31
458.4
  0
LINE
  5
1022FF
  8
HOEHENLINIEN
 10
-0.089
 20
14.056
 30
458.2
 11
0.193
 21
14.013
 31
458.2
  0
LINE
  5
102300
  8
HOEHENLINIEN
 10
1.005
 20
14.904
 30
458.4
 11
1.061
 21
14.899
 31
458.4
  0
LINE
  5
102301
  8
HOEHENLINIEN
 10
-0.735
 20
14.115
 30
458.2
 11
-0.089
 21
14.056
 31
458.2
  0
LINE
  5
102302
  8
HOEHENLINIEN
 10
-2.807
 20
14.316
 30
458.2
 11
-0.735
 21
14.115
 31
458.2
  0
LINE
  5
102303
  8
HOEHENLINIEN
 10
-1.079
 20
12.882
 30
458.0
 11
-2.221
 21
12.895
 31
458.0
  0
LINE
  5
102304
  8
HOEHENLINIEN
 10
-2.221
 20
12.895
 30
458.0
 11
-4.128
 21
13.409
 31
458.0
  0
LINE
  5
102305
  8
HOEHENLINIEN
 10
-3.321
 20
11.937
 30
457.8
 11
-5.388
 21
12.495
 31
457.8
  0
LINE
  5
102306
  8
HOEHENLINIEN
 10
-5.955
 20
13.682
 30
458.0
 11
-4.128
 21
13.409
 31
458.0
  0
LINE
  5
102307
  8
HOEHENLINIEN
 10
-5.947
 20
12.578
 30
457.8
 11
-5.388
 21
12.495
 31
457.8
  0
POLYLINE
  5
102314
  8
HAUS
  6
CONTINUOUS
 66
     1
 10
0.0
 20
0.0
 30
0.0
 70
   129
  0
VERTEX
  5
1023E5
  8
HAUS
  6
CONTINUOUS
 10
-6.145
 20
13.665
 30
0.0
  0
VERTEX
  5
1023E6
  8
HAUS
  6
CONTINUOUS
 10
-5.945
 20
13.665
 30
0.0
  0
VERTEX
  5
1023E7
  8
HAUS
  6
CONTINUOUS
 10
-5.945
 20
8.865
 30
0.0
  0
VERTEX
  5
1023E8
  8
HAUS
  6
CONTINUOUS
 10
0.25
 20
8.865
 30
0.0
  0
VERTEX
  5
1023E9
  8
HAUS
  6
CONTINUOUS
 10
0.25
 20
10.74
 30
0.0
  0
VERTEX
  5
1023EA
  8
HAUS
  6
CONTINUOUS
 10
1.62
 20
10.74
 30
0.0
  0
VERTEX
  5
1023EB
  8
HAUS
  6
CONTINUOUS
 10
2.745
 20
10.74
 30
0.0
  0
VERTEX
  5
1023EC
  8
HAUS
  6
CONTINUOUS
 10
7.03
 20
10.74
 30
0.0
  0
VERTEX
  5
1023ED
  8
HAUS
  6
CONTINUOUS
 10
7.72
 20
10.74
 30
0.0
  0
VERTEX
  5
1023EE
  8
HAUS
  6
CONTINUOUS
 10
8.02
 20
10.74
 30
0.0
  0
VERTEX
  5
1023EF
  8
HAUS
  6
CONTINUOUS
 10
8.71
 20
10.74
 30
0.0
  0
VERTEX
  5
1023F0
  8
HAUS
  6
CONTINUOUS
 10
12.79
 20
10.74
 30
0.0
  0
VERTEX
  5
1023F1
  8
HAUS
  6
CONTINUOUS
 10
12.79
 20
11.94
 30
0.0
  0
VERTEX
  5
1023F2
  8
HAUS
  6
CONTINUOUS
 10
16.69
 20
11.94
 30
0.0
  0
VERTEX
  5
1023F3
  8
HAUS
  6
CONTINUOUS
 10
16.69
 20
8.34
 30
0.0
  0
VERTEX
  5
1023F4
  8
HAUS
  6
CONTINUOUS
 10
15.49
 20
8.34
 30
0.0
  0
VERTEX
  5
1023F5
  8
HAUS
  6
CONTINUOUS
 10
15.49
 20
0.0
 30
0.0
  0
VERTEX
  5
1023F6
  8
HAUS
  6
CONTINUOUS
 10
10.13
 20
0.0
 30
0.0
  0
VERTEX
  5
1023F7
  8
HAUS
  6
CONTINUOUS
 10
10.13
 20
-2.025
 30
0.0
  0
VERTEX
  5
1023F8
  8
HAUS
  6
CONTINUOUS
 10
5.61
 20
-2.025
 30
0.0
  0
VERTEX
  5
1023F9
  8
HAUS
  6
CONTINUOUS
 10
5.61
 20
0.0
 30
0.0
  0
VERTEX
  5
1023FA
  8
HAUS
  6
CONTINUOUS
 10
0.25
 20
0.0
 30
0.0
  0
VERTEX
  5
1023FB
  8
HAUS
  6
CONTINUOUS
 10
0.25
 20
1.875
 30
0.0
  0
VERTEX
  5
1023FC
  8
HAUS
  6
CONTINUOUS
 10
-5.995
 20
1.875
 30
0.0
  0
VERTEX
  5
1023FD
  8
HAUS
  6
CONTINUOUS
 10
-5.995
 20
-1.125
 30
0.0
  0
VERTEX
  5
1023FE
  8
HAUS
  6
CONTINUOUS
 10
-6.145
 20
-1.125
 30
0.0
  0
SEQEND
  5
1023FF
  8
HAUS
  6
CONTINUOUS
  0
INSERT
  5
102318
  8
HAUS_FLAECHE
  6
CONTINUOUS
  2
*U5
 10
0.0
 20
0.0
 30
0.0
1001
ACAD
1002
{
1000
R14_HATCH_DATA
1000
102318
1011
1.0
1021
0.0
1031
0.0
1021
0.0
1031
0.0
1011
0.0
1021
0.0
1031
0.0
1021
1.0
1031
0.0
1011
0.0
1021
0.0
1031
0.0
1021
0.0
1031
1.0
1040
0.0
1010
0.0
1020
0.0
1030
1.0
1000
SOLID
1070
     1
1070
     1
1071
        1
1071
        1
1071
       26
1070
     1
1040
-6.145
1040
13.665
1040
-5.945
1040
13.665
1070
     1
1040
-5.945
1040
13.665
1040
-5.945
1040
8.865
1070
     1
1040
-5.945
1040
8.865
1040
0.25
1040
8.865
1070
     1
1040
0.25
1040
8.865
1040
0.25
1040
10.74
1070
     1
1040
0.25
1040
10.74
1040
1.62
1040
10.74
1070
     1
1040
1.62
1040
10.74
1040
2.745
1040
10.74
1070
     1
1040
2.745
1040
10.74
1040
7.03
1040
10.74
1070
     1
1040
7.03
1040
10.74
1040
7.72
1040
10.74
1070
     1
1040
7.72
1040
10.74
1040
8.02
1040
10.74
1070
     1
1040
8.02
1040
10.74
1040
8.71
1040
10.74
1070
     1
1040
8.71
1040
10.74
1040
12.79
1040
10.74
1070
     1
1040
12.79
1040
10.74
1040
12.79
1040
11.94
1070
     1
1040
12.79
1040
11.94
1040
16.69
1040
11.94
1070
     1
1040
16.69
1040
11.94
1040
16.69
1040
8.34
1070
     1
1040
16.69
1040
8.34
1040
15.49
1040
8.34
1070
     1
1040
15.49
1040
8.34
1040
15.49
1040
0.0
1070
     1
1040
15.49
1040
0.0
1040
10.13
1040
0.0
1070
     1
1040
10.13
1040
0.0
1040
10.13
1040
-2.025
1070
     1
1040
10.13
1040
-2.025
1040
5.61
1040
-2.025
1070
     1
1040
5.61
1040
-2.025
1040
5.61
1040
0.0
1070
     1
1040
5.61
1040
0.0
1040
0.25
1040
0.0
1070
     1
1040
0.25
1040
0.0
1040
0.25
1040
1.875
1070
     1
1040
0.25
1040
1.875
1040
-5.995
1040
1.875
1070
     1
1040
-5.995
1040
1.875
1040
-5.995
1040
-1.125
1070
     1
1040
-5.995
1040
-1.125
1040
-6.145
1040
-1.125
1070
     1
1040
-6.145
1040
-1.125
1040
-6.145
1040
13.665
1071
        1
1005
102314
1070
     0
1070
     1
1071
        1
1040
0.0
1040
0.0
1040
0.0
1002
}
  0
LINE
  5
102391
  8
RAHMEN
 10
38.254
 20
23.772
 30
0.0
 11
-10.113
 21
23.772
 31
0.0
  0
LINE
  5
102392
  8
RAHMEN
 10
38.754
 20
24.272
 30
0.0
 11
-11.113
 21
24.272
 31
0.0
  0
LINE
  5
102393
  8
RAHMEN
 10
38.254
 20
-20.928
 30
0.0
 11
-10.113
 21
-20.928
 31
0.0
  0
LINE
  5
102394
  8
RAHMEN
 10
38.754
 20
-21.428
 30
0.0
 11
-11.113
 21
-21.428
 31
0.0
  0
LINE
  5
102395
  8
RAHMEN
 10
38.754
 20
-6.578
 30
0.0
 11
38.254
 21
-6.578
 31
0.0
  0
LINE
  5
102396
  8
RAHMEN
 10
3.554
 20
-21.428
 30
0.0
 11
3.554
 21
-20.928
 31
0.0
  0
LINE
  5
102397
  8
RAHMEN
 10
-11.113
 20
-21.428
 30
0.0
 11
-11.113
 21
24.272
 31
0.0
  0
LINE
  5
102398
  8
RAHMEN
 10
-10.113
 20
-20.928
 30
0.0
 11
-10.113
 21
23.772
 31
0.0
  0
LINE
  5
102399
  8
RAHMEN
 10
-10.113
 20
-14.003
 30
0.0
 11
-11.113
 21
-14.003
 31
0.0
  0
LINE
  5
10239A
  8
RAHMEN
 10
38.254
 20
23.772
 30
0.0
 11
38.254
 21
-20.928
 31
0.0
  0
LINE
  5
10239B
  8
RAHMEN
 10
38.754
 20
24.272
 30
0.0
 11
38.754
 21
-21.428
 31
0.0
  0
LINE
  5
10239C
  8
RAHMEN
 10
29.754
 20
24.272
 30
0.0
 11
29.754
 21
23.772
 31
0.0
  0
TEXT
  5
10239D
  8
RAHMEN
 10
33.506
 20
-20.236
 30
0.0
 40
0.15
  1
Proj./Plan Nr. 00.0
  7
ROMANS
  0
TEXT
  5
10239E
  8
RAHMEN
 10
30.557
 20
-13.023
 30
0.0
 40
0.15
  1
kann keine Gewähr übernommen werden.
  7
ROMANS
  0
TEXT
  5
10239F
  8
RAHMEN
 10
30.557
 20
-12.78
 30
0.0
 40
0.15
  1
Für übersehene oder unsichtbare Schächte usw.
  7
ROMANS
  0
TEXT
  5
1023A0
  8
RAHMEN
 10
30.557
 20
-12.537
 30
0.0
 40
0.15
  1
Alle Angaben sind vor Ort zu prüfen.
  7
ROMANS
  0
TEXT
  5
1023A1
  8
RAHMEN
 62
     8
 10
30.554
 20
-16.758
 30
0.0
 40
0.25
  1
Sie als Auftragsgeber
  7
ROMANS
  0
LINE
  5
1023A2
  8
RAHMEN
 10
37.754
 20
-20.428
 30
0.0
 11
30.254
 21
-20.428
 31
0.0
  0
LINE
  5
1023A3
  8
RAHMEN
 10
37.754
 20
-18.178
 30
0.0
 11
30.254
 21
-18.178
 31
0.0
  0
LINE
  5
1023A4
  8
RAHMEN
 10
37.754
 20
-16.178
 30
0.0
 11
30.254
 21
-16.178
 31
0.0
  0
LINE
  5
1023A5
  8
RAHMEN
 10
37.754
 20
-14.178
 30
0.0
 11
30.254
 21
-14.178
 31
0.0
  0
TEXT
  5
1023A6
  8
RAHMEN
 62
     8
 10
30.554
 20
-14.77
 30
0.0
 40
0.25
  1
êin Hausgarten
  7
ROMANS
  0
LINE
  5
1023A7
  8
RAHMEN
 10
30.254
 20
-20.428
 30
0.0
 11
30.254
 21
-14.178
 31
0.0
  0
TEXT
  5
1023A8
  8
RAHMEN
 10
30.554
 20
-19.986
 30
0.0
 40
0.15
  1
Fax 089 546 38 336
  7
ROMANS
  0
TEXT
  5
1023A9
  8
RAHMEN
 10
30.554
 20
-20.236
 30
0.0
 40
0.15
  1
www.xyz-roemer.de
  7
ROMANS
  0
TEXT
  5
1023AA
  8
RAHMEN
 62
     8
 10
30.554
 20
-18.657
 30
0.0
 40
0.25
  1
Georg Römer
  7
ROMANS
  0
TEXT
  5
1023AB
  8
RAHMEN
 10
30.554
 20
-19.736
 30
0.0
 40
0.15
  1
Tel. 089 546 38 332
  7
ROMANS
  0
TEXT
  5
1023AC
  8
RAHMEN
 10
30.554
 20
-19.486
 30
0.0
 40
0.15
  1
80687 München
  7
ROMANS
  0
TEXT
  5
1023AD
  8
RAHMEN
 10
30.554
 20
-19.236
 30
0.0
 40
0.15
  1
Perhamerstr. 6
  7
ROMANS
  0
TEXT
  5
1023AE
  8
RAHMEN
 10
30.554
 20
-18.986
 30
0.0
 40
0.15
  1
Ing.(FH) Landespflege
  7
ROMANS
  0
TEXT
  5
1023AF
  8
RAHMEN
 10
30.554
 20
-15.878
 30
0.0
 40
0.15
  1
Massstab 1:50
  7
ROMANS
  0
TEXT
  5
1023B0
  8
RAHMEN
 10
30.554
 20
-15.628
 30
0.0
 40
0.15
  1
Aufmaß März 2005
  7
ROMANS
  0
TEXT
  5
1023B2
  8
RAHMEN
 10
30.554
 20
-15.128
 30
0.0
 40
0.15
  1
Bestandsplan
  7
ROMANS
  0
TEXT
  5
1023B3
  8
RAHMEN
 10
30.554
 20
-17.877
 30
0.0
 40
0.15
  1
00000 Ihre Stadt
  7
ROMANS
  0
TEXT
  5
1023B4
  8
RAHMEN
 10
30.554
 20
-17.627
 30
0.0
 40
0.15
  1
Ihre Straße
  7
ROMANS
  0
TEXT
  5
1023B6
  8
RAHMEN
 10
30.554
 20
-17.127
 30
0.0
 40
0.15
  1
Landschaftsarchitekt
  7
ROMANS
  0
TEXT
  5
1023B7
  8
RAHMEN
 10
30.557
 20
-13.508
 30
0.0
 40
0.15
  1
Höhe + 400,00 = NN-Höhe
  7
ROMANS
  0
TEXT
  5
1023B8
  8
RAHMEN
 10
30.557
 20
-13.266
 30
0.0
 40
0.15
  1
Unstimmigkeiten sind zu melden.
  7
ROMANS
  0
TEXT
  5
1023B9
  8
RAHMEN
 62
     8
 10
30.557
 20
-12.294
 30
0.0
 40
0.25
  1
Hinweis:
  7
ROMANS
  0
LINE
  5
1023BA
  8
RAHMEN
 10
37.754
 20
-20.428
 30
0.0
 11
37.754
 21
-14.178
 31
0.0
  0
SOLID
  5
1023BB
  8
RAHMEN
 10
36.504
 20
-18.678
 30
0.0
 11
36.546
 21
-18.65
 31
0.0
 12
37.504
 22
-20.178
 32
0.0
 13
37.546
 23
-20.15
 33
0.0
  0
SOLID
  5
1023BC
  8
RAHMEN
 10
36.504
 20
-20.178
 30
0.0
 11
36.554
 21
-20.128
 31
0.0
 12
37.504
 22
-20.178
 32
0.0
 13
37.471
 23
-20.128
 33
0.0
  0
POLYLINE
  5
1023BD
  8
RAHMEN
 62
     1
 66
     1
 10
0.0
 20
0.0
 30
0.0
 70
     1
 40
0.5
 41
0.5
  0
VERTEX
  5
1023BE
  8
RAHMEN
 62
     1
 10
36.754
 20
-19.178
 30
0.0
 42
1.0
  0
VERTEX
  5
1023BF
  8
RAHMEN
 62
     1
 10
37.254
 20
-19.178
 30
0.0
 42
1.0
  0
SEQEND
  5
1023C0
  8
RAHMEN
 62
     1
  0
SOLID
  5
1023C1
  8
RAHMEN
 10
36.504
 20
-20.178
 30
0.0
 11
36.554
 21
-20.128
 31
0.0
 12
36.504
 22
-18.678
 32
0.0
 13
36.554
 23
-18.753
 33
0.0
  0
LINE
  5
1023C2
  8
RAHMEN
 10
20.754
 20
24.272
 30
0.0
 11
20.754
 21
23.772
 31
0.0
  0
LINE
  5
1023C3
  8
RAHMEN
 10
-10.113
 20
-6.578
 30
0.0
 11
-11.113
 21
-6.578
 31
0.0
  0
LINE
  5
1023C4
  8
RAHMEN
 10
20.754
 20
-20.928
 30
0.0
 11
20.754
 21
-21.428
 31
0.0
  0
LINE
  5
1023C5
  8
RAHMEN
 10
3.554
 20
23.772
 30
0.0
 11
3.554
 21
24.272
 31
0.0
  0
LINE
  5
1023C6
  8
RAHMEN
 10
29.754
 20
-20.928
 30
0.0
 11
29.754
 21
-21.428
 31
0.0
  0
INSERT
  5
1023CA
  8
HAUS_FLAECHE
  6
CONTINUOUS
  2
ABLAUF
 10
31.362
 20
-4.267
 30
0.0
 41
0.3
 42
0.3
 43
0.3
  0
INSERT
  5
1023CB
  8
HAUS_FLAECHE
  6
CONTINUOUS
  2
KANALSCHACHT
 10
31.362
 20
-5.138
 30
0.0
  0
TEXT
  5
1023CC
  8
RAHMEN
 62
     8
 10
32.319
 20
-3.535
 30
0.0
 40
0.25
  1
Legende:
  7
ROMANS
  0
TEXT
  5
1023CD
  8
RAHMEN
 10
32.319
 20
-4.375
 30
0.0
 40
0.15
  1
Ablauf
  7
ROMANS
  0
TEXT
  5
1023CE
  8
RAHMEN
 10
32.319
 20
-5.271
 30
0.0
 40
0.15
  1
Kanalschacht
  7
ROMANS
  0
TEXT
  5
1023CF
  8
RAHMEN
 10
32.319
 20
-6.195
 30
0.0
 40
0.15
  1
Höhenlinien
  7
ROMANS
  0
TEXT
  5
1023D0
  8
RAHMEN
 10
32.319
 20
-6.528
 30
0.0
 40
0.15
  1
Abstand 20 cm
  7
ROMANS
  0
LINE
  5
1023D2
  8
HOEHENLINIEN
 10
30.862
 20
-6.151
 30
0.0
 11
31.862
 21
-6.151
 31
0.0
  0
LINE
  5
1023D3
  8
HOEHENLINIEN
 10
30.862
 20
-6.46
 30
0.0
 11
31.862
 21
-6.46
 31
0.0
  0
INSERT
  5
1023E4
  8
RAHMEN
  2
NORDEN
 10
32.495
 20
-10.368
 30
0.029
 41
0.05
 42
0.05
 43
0.05
 50
10.909
  0
ENDSEC
  0
EOF
